  0
SECTION
  2
HEADER
  9
$ACADVER
  1
AC1015
  9
$ACADMAINTVER
 70
     6
  9
$DWGCODEPAGE
  3
ANSI_1254
  9
$INSBASE
 10
0.0
 20
0.0
 30
0.0
  9
$EXTMIN
 10
0.0
 20
0.0
 30
0.0
  9
$EXTMAX
 10
279.4
 20
215.9
 30
0.0
  9
$LIMMIN
 10
0.0
 20
0.0
  9
$LIMMAX
 10
279.4
 20
215.9
  9
$ORTHOMODE
 70
     0
  9
$REGENMODE
 70
     1
  9
$FILLMODE
 70
     1
  9
$QTEXTMODE
 70
     0
  9
$MIRRTEXT
 70
     1
  9
$LTSCALE
 40
1.0
  9
$ATTMODE
 70
     1
  9
$TEXTSIZE
 40
3.5
  9
$TRACEWID
 40
1.0
  9
$TEXTSTYLE
  7
Standard
  9
$CLAYER
  8
0
  9
$CELTYPE
  6
ByLayer
  9
$CECOLOR
 62
   256
  9
$CELTSCALE
 40
1.0
  9
$DISPSILH
 70
     0
  9
$DIMSCALE
 40
1.0
  9
$DIMASZ
 40
3.5
  9
$DIMEXO
 40
1.0
  9
$DIMDLI
 40
3.75
  9
$DIMRND
 40
0.0
  9
$DIMDLE
 40
0.0
  9
$DIMEXE
 40
1.0
  9
$DIMTP
 40
0.0
  9
$DIMTM
 40
0.0
  9
$DIMTXT
 40
3.5
  9
$DIMCEN
 40
2.5
  9
$DIMTSZ
 40
0.0
  9
$DIMTOL
 70
     0
  9
$DIMLIM
 70
     0
  9
$DIMTIH
 70
     1
  9
$DIMTOH
 70
     1
  9
$DIMSE1
 70
     0
  9
$DIMSE2
 70
     0
  9
$DIMTAD
 70
     1
  9
$DIMZIN
 70
     0
  9
$DIMBLK
  1

  9
$DIMASO
 70
     1
  9
$DIMSHO
 70
     1
  9
$DIMPOST
  1

  9
$DIMAPOST
  1

  9
$DIMALT
 70
     0
  9
$DIMALTD
 70
     3
  9
$DIMALTF
 40
0.0393700787
  9
$DIMLFAC
 40
1.0
  9
$DIMTOFL
 70
     1
  9
$DIMTVP
 40
0.0
  9
$DIMTIX
 70
     0
  9
$DIMSOXD
 70
     0
  9
$DIMSAH
 70
     0
  9
$DIMBLK1
  1

  9
$DIMBLK2
  1

  9
$DIMSTYLE
  2
ISO-25
  9
$DIMCLRD
 70
     0
  9
$DIMCLRE
 70
     0
  9
$DIMCLRT
 70
     0
  9
$DIMTFAC
 40
1.0
  9
$DIMGAP
 40
1.524
  9
$DIMJUST
 70
     0
  9
$DIMSD1
 70
     0
  9
$DIMSD2
 70
     0
  9
$DIMTOLJ
 70
     0
  9
$DIMTZIN
 70
     0
  9
$DIMALTZ
 70
     0
  9
$DIMALTTZ
 70
     0
  9
$DIMUPT
 70
     0
  9
$DIMDEC
 70
     2
  9
$DIMTDEC
 70
     2
  9
$DIMALTU
 70
     2
  9
$DIMALTTD
 70
     3
  9
$DIMTXSTY
  7
Standard
  9
$DIMAUNIT
 70
     0
  9
$DIMADEC
 70
     2
  9
$DIMALTRND
 40
0.0
  9
$DIMAZIN
 70
     0
  9
$DIMDSEP
 70
    44
  9
$DIMATFIT
 70
     3
  9
$DIMFRAC
 70
     0
  9
$DIMLDRBLK
  1

  9
$DIMLUNIT
 70
     2
  9
$DIMLWD
 70
    -2
  9
$DIMLWE
 70
    -2
  9
$DIMTMOVE
 70
     0
  9
$LUNITS
 70
     2
  9
$LUPREC
 70
     2
  9
$SKETCHINC
 40
1.0
  9
$FILLETRAD
 40
10.0
  9
$AUNITS
 70
     0
  9
$AUPREC
 70
     2
  9
$MENU
  1
.
  9
$ELEVATION
 40
0.0
  9
$PELEVATION
 40
0.0
  9
$THICKNESS
 40
0.0
  9
$LIMCHECK
 70
     0
  9
$CHAMFERA
 40
0.0
  9
$CHAMFERB
 40
0.0
  9
$CHAMFERC
 40
0.0
  9
$CHAMFERD
 40
0.0
  9
$SKPOLY
 70
     0
  9
$TDCREATE
 40
2459741.601714687
  9
$TDUCREATE
 40
2459741.476714687
  9
$TDUPDATE
 40
2459741.601714861
  9
$TDUUPDATE
 40
2459741.476714861
  9
$TDINDWG
 40
0.0000000116
  9
$TDUSRTIMER
 40
0.0000000116
  9
$USRTIMER
 70
     1
  9
$ANGBASE
 50
0.0
  9
$ANGDIR
 70
     0
  9
$PDMODE
 70
     0
  9
$PDSIZE
 40
-1.0
  9
$PLINEWID
 40
0.0
  9
$SPLFRAME
 70
     0
  9
$SPLINETYPE
 70
     6
  9
$SPLINESEGS
 70
     8
  9
$HANDSEED
  5
129
  9
$SURFTAB1
 70
     6
  9
$SURFTAB2
 70
     6
  9
$SURFTYPE
 70
     6
  9
$SURFU
 70
     6
  9
$SURFV
 70
     6
  9
$UCSBASE
  2

  9
$UCSNAME
  2

  9
$UCSORG
 10
0.0
 20
0.0
 30
0.0
  9
$UCSXDIR
 10
1.0
 20
0.0
 30
0.0
  9
$UCSYDIR
 10
0.0
 20
1.0
 30
0.0
  9
$UCSORTHOREF
  2

  9
$UCSORTHOVIEW
 70
     0
  9
$UCSORGTOP
 10
0.0
 20
0.0
 30
0.0
  9
$UCSORGBOTTOM
 10
0.0
 20
0.0
 30
0.0
  9
$UCSORGLEFT
 10
0.0
 20
0.0
 30
0.0
  9
$UCSORGRIGHT
 10
0.0
 20
0.0
 30
0.0
  9
$UCSORGFRONT
 10
0.0
 20
0.0
 30
0.0
  9
$UCSORGBACK
 10
0.0
 20
0.0
 30
0.0
  9
$PUCSBASE
  2

  9
$PUCSNAME
  2

  9
$PUCSORG
 10
0.0
 20
0.0
 30
0.0
  9
$PUCSXDIR
 10
1.0
 20
0.0
 30
0.0
  9
$PUCSYDIR
 10
0.0
 20
1.0
 30
0.0
  9
$PUCSORTHOREF
  2

  9
$PUCSORTHOVIEW
 70
     0
  9
$PUCSORGTOP
 10
0.0
 20
0.0
 30
0.0
  9
$PUCSORGBOTTOM
 10
0.0
 20
0.0
 30
0.0
  9
$PUCSORGLEFT
 10
0.0
 20
0.0
 30
0.0
  9
$PUCSORGRIGHT
 10
0.0
 20
0.0
 30
0.0
  9
$PUCSORGFRONT
 10
0.0
 20
0.0
 30
0.0
  9
$PUCSORGBACK
 10
0.0
 20
0.0
 30
0.0
  9
$USERI1
 70
     0
  9
$USERI2
 70
     0
  9
$USERI3
 70
     0
  9
$USERI4
 70
     0
  9
$USERI5
 70
     0
  9
$USERR1
 40
0.0
  9
$USERR2
 40
0.0
  9
$USERR3
 40
0.0
  9
$USERR4
 40
0.0
  9
$USERR5
 40
0.0
  9
$WORLDVIEW
 70
     1
  9
$SHADEDGE
 70
     3
  9
$SHADEDIF
 70
    70
  9
$TILEMODE
 70
     1
  9
$MAXACTVP
 70
    64
  9
$PINSBASE
 10
0.0
 20
0.0
 30
0.0
  9
$PLIMCHECK
 70
     0
  9
$PEXTMIN
 10
1.0000000000E+20
 20
1.0000000000E+20
 30
1.0000000000E+20
  9
$PEXTMAX
 10
-1.0000000000E+20
 20
-1.0000000000E+20
 30
-1.0000000000E+20
  9
$PLIMMIN
 10
0.0
 20
0.0
  9
$PLIMMAX
 10
420.0
 20
297.0
  9
$UNITMODE
 70
     0
  9
$VISRETAIN
 70
     1
  9
$PLINEGEN
 70
     0
  9
$PSLTSCALE
 70
     1
  9
$TREEDEPTH
 70
  3020
  9
$CMLSTYLE
  2
Standard
  9
$CMLJUST
 70
     0
  9
$CMLSCALE
 40
20.0
  9
$PROXYGRAPHICS
 70
     1
  9
$MEASUREMENT
 70
     1
  9
$CELWEIGHT
370
    -1
  9
$ENDCAPS
280
     0
  9
$JOINSTYLE
280
     0
  9
$LWDISPLAY
290
     1
  9
$INSUNITS
 70
     4
  9
$HYPERLINKBASE
  1

  9
$STYLESHEET
  1

  9
$XEDIT
290
     1
  9
$CEPSNTYPE
380
     0
  9
$PSTYLEMODE
290
     1
  9
$FINGERPRINTGUID
  2
{cfd88196-7fcc-4cd7-a39e-6e412db01c8d}
  9
$VERSIONGUID
  2
{FAEB1C32-E019-11D5-929B-00C0DF256EC4}
  9
$EXTNAMES
290
     1
  9
$PSVPSCALE
 40
0.0
  9
$OLESTARTUP
290
     0
  0
ENDSEC
  0
SECTION
  2
CLASSES
  0
CLASS
  1
ACDBDICTIONARYWDFLT
  2
AcDbDictionaryWithDefault
  3
ObjectDBX Classes
 90
        0
280
     0
281
     0
  0
CLASS
  1
VISUALSTYLE
  2
AcDbVisualStyle
  3
ObjectDBX Classes
 90
     4095
280
     0
281
     0
  0
CLASS
  1
MATERIAL
  2
AcDbMaterial
  3
ObjectDBX Classes
 90
     1153
280
     0
281
     0
  0
CLASS
  1
SCALE
  2
AcDbScale
  3
ObjectDBX Classes
 90
     1153
280
     0
281
     0
  0
CLASS
  1
TABLESTYLE
  2
AcDbTableStyle
  3
ObjectDBX Classes
 90
     4095
280
     0
281
     0
  0
CLASS
  1
MLEADERSTYLE
  2
AcDbMLeaderStyle
  3
ACDB_MLEADERSTYLE_CLASS
 90
     4095
280
     0
281
     0
  0
CLASS
  1
SUN
  2
AcDbSun
  3
SCENEOE
 90
     1153
280
     0
281
     0
  0
CLASS
  1
ACDBPLACEHOLDER
  2
AcDbPlaceHolder
  3
ObjectDBX Classes
 90
        0
280
     0
281
     0
  0
CLASS
  1
LAYOUT
  2
AcDbLayout
  3
ObjectDBX Classes
 90
        0
280
     0
281
     0
  0
ENDSEC
  0
SECTION
  2
TABLES
  0
TABLE
  2
VPORT
  5
8
330
0
100
AcDbSymbolTable
 70
     1
  0
VPORT
  5
29
330
8
100
AcDbSymbolTableRecord
100
AcDbViewportTableRecord
  2
*Active
 70
     0
 10
0.0
 20
0.0
 11
1.0
 21
1.0
 12
139.7
 22
107.95
 13
0.0
 23
0.0
 14
10.0
 24
10.0
 15
10.0
 25
10.0
 16
0.0
 26
0.0
 36
1.0
 17
0.0
 27
0.0
 37
0.0
 40
215.9
 41
1.2941176471
 42
50.0
 43
0.0
 44
0.0
 50
0.0
 51
0.0
 71
     0
 72
  2000
 73
     1
 74
     3
 75
     0
 76
     0
 77
     0
 78
     0
281
     0
 65
     1
110
0.0
120
0.0
130
0.0
111
1.0
121
0.0
131
0.0
112
0.0
122
1.0
132
0.0
 79
     0
146
0.0
  0
ENDTAB
  0
TABLE
  2
LTYPE
  5
5
330
0
100
AcDbSymbolTable
 70
     6
  0
LTYPE
  5
14
330
5
100
AcDbSymbolTableRecord
100
AcDbLinetypeTableRecord
  2
ByBlock
 70
     0
  3

 72
    65
 73
     0
 40
0.0
  0
LTYPE
  5
15
330
5
100
AcDbSymbolTableRecord
100
AcDbLinetypeTableRecord
  2
ByLayer
 70
     0
  3

 72
    65
 73
     0
 40
0.0
  0
LTYPE
  5
16
330
5
100
AcDbSymbolTableRecord
100
AcDbLinetypeTableRecord
  2
Continuous
 70
     0
  3
Solid line
 72
    65
 73
     0
 40
0.0
  0
LTYPE
  5
6E
330
5
100
AcDbSymbolTableRecord
100
AcDbLinetypeTableRecord
  2
HIDDEN
 70
     0
  3
Hidden __ __ __ __ __ __ __ __ __ __ __ __ __ __
 72
    65
 73
     2
 40
1.905
 49
1.27
 74
     0
 49
-0.635
 74
     0
  0
LTYPE
  5
6F
330
5
100
AcDbSymbolTableRecord
100
AcDbLinetypeTableRecord
  2
PHANTOM
 70
     0
  3
Phantom ______  __  __  ______  __  __  ______
 72
    65
 73
     6
 40
12.7
 49
6.35
 74
     0
 49
-1.27
 74
     0
 49
1.27
 74
     0
 49
-1.27
 74
     0
 49
1.27
 74
     0
 49
-1.27
 74
     0
  0
LTYPE
  5
70
330
5
100
AcDbSymbolTableRecord
100
AcDbLinetypeTableRecord
  2
CENTER
 70
     0
  3
Center ____ _ ____ _ ____ _ ____ _ ____ _ ____
 72
    65
 73
     4
 40
10.16
 49
6.35
 74
     0
 49
-1.27
 74
     0
 49
1.27
 74
     0
 49
-1.27
 74
     0
  0
LTYPE
  5
71
330
5
100
AcDbSymbolTableRecord
100
AcDbLinetypeTableRecord
  2
CENTERX2
 70
     0
  3
Center (2x) ________  __  ________  __  _____
 72
    65
 73
     4
 40
20.32
 49
12.7
 74
     0
 49
-2.54
 74
     0
 49
2.54
 74
     0
 49
-2.54
 74
     0
  0
LTYPE
  5
72
330
5
100
AcDbSymbolTableRecord
100
AcDbLinetypeTableRecord
  2
DOT2
 70
     0
  3
Dot (.5x) ........................................
 72
    65
 73
     2
 40
0.635
 49
0.0
 74
     0
 49
-0.635
 74
     0
  0
ENDTAB
  0
TABLE
  2
LAYER
  5
2
330
0
100
AcDbSymbolTable
 70
    17
  0
LAYER
  5
10
330
2
100
AcDbSymbolTableRecord
100
AcDbLayerTableRecord
  2
0
 70
     0
 62
     7
  6
Continuous
370
    -3
390
F
  0
LAYER
  5
73
330
2
100
AcDbSymbolTableRecord
100
AcDbLayerTableRecord
  2
FORMAT
 70
     0
 62
     7
  6
Continuous
370
    -3
390
F
  0
LAYER
  5
74
330
2
100
AcDbSymbolTableRecord
100
AcDbLayerTableRecord
  2
YARDIMCI_GEOMETRI
 70
     0
 62
    -6
  6
Continuous
290
     0
370
    -3
390
F
  0
LAYER
  5
75
330
2
100
AcDbSymbolTableRecord
100
AcDbLayerTableRecord
  2
SAYFA_CERCEVESI
 70
     0
 62
     7
  6
Continuous
370
    25
390
F
  0
LAYER
  5
76
330
2
100
AcDbSymbolTableRecord
100
AcDbLayerTableRecord
  2
ANTET
 70
     0
 62
     7
  6
Continuous
370
    -3
390
F
  0
LAYER
  5
77
330
2
100
AcDbSymbolTableRecord
100
AcDbLayerTableRecord
  2
OLCU
 70
     0
 62
   150
  6
Continuous
370
    -3
390
F
  0
LAYER
  5
78
330
2
100
AcDbSymbolTableRecord
100
AcDbLayerTableRecord
  2
METIN
 70
     0
 62
    96
  6
Continuous
370
    -3
390
F
  0
LAYER
  5
79
330
2
100
AcDbSymbolTableRecord
100
AcDbLayerTableRecord
  2
BALON
 70
     0
 62
     5
  6
Continuous
370
    -3
390
F
  0
LAYER
  5
7A
330
2
100
AcDbSymbolTableRecord
100
AcDbLayerTableRecord
  2
VURGU
 70
     0
 62
     7
  6
Continuous
370
    -3
390
F
  0
LAYER
  5
7B
330
2
100
AcDbSymbolTableRecord
100
AcDbLayerTableRecord
  2
SILIK
 70
     0
 62
     7
  6
Continuous
370
    -3
390
F
  0
LAYER
  5
7C
330
2
100
AcDbSymbolTableRecord
100
AcDbLayerTableRecord
  2
MODEL
 70
     0
 62
     7
  6
Continuous
370
    -3
390
F
  0
LAYER
  5
7D
330
2
100
AcDbSymbolTableRecord
100
AcDbLayerTableRecord
  2
DETAYLANDıRMA
 70
     0
 62
   190
  6
Continuous
370
    -3
390
F
  0
LAYER
  5
7E
330
2
100
AcDbSymbolTableRecord
100
AcDbLayerTableRecord
  2
TOLERANS
 70
     0
 62
   230
  6
Continuous
370
    -3
390
F
  0
LAYER
  5
7F
330
2
100
AcDbSymbolTableRecord
100
AcDbLayerTableRecord
  2
MERKEZ_CIZGILERI
 70
     0
 62
    30
  6
Continuous
370
    -3
390
F
  0
LAYER
  5
80
330
2
100
AcDbSymbolTableRecord
100
AcDbLayerTableRecord
  2
KESIT-DETAY_CIZGILERI
 70
     0
 62
     7
  6
Continuous
370
    -3
390
F
  0
LAYER
  5
81
330
2
100
AcDbSymbolTableRecord
100
AcDbLayerTableRecord
  2
\U+041E\U+0421\U+0415\U+0412\U+042B\U+0415
 70
     0
 62
     7
  6
Continuous
370
    -3
390
F
  0
LAYER
  5
82
330
2
100
AcDbSymbolTableRecord
100
AcDbLayerTableRecord
  2
\U+0412\U+041E\U+0414\U+042F\U+041D\U+042B\U+0415_\U+0417\U+041D\U+0410\U+041A\U+0418
 70
     0
 62
    11
  6
Continuous
370
    -3
390
F
  0
ENDTAB
  0
TABLE
  2
STYLE
  5
3
330
0
100
AcDbSymbolTable
 70
     1
  0
STYLE
  5
11
330
3
100
AcDbSymbolTableRecord
100
AcDbTextStyleTableRecord
  2
Standard
 70
     0
 40
0.0
 41
1.0
 50
0.0
 71
     0
 42
3.5
  3
txt
  4

  0
ENDTAB
  0
TABLE
  2
VIEW
  5
6
330
0
100
AcDbSymbolTable
 70
     0
  0
ENDTAB
  0
TABLE
  2
UCS
  5
7
330
0
100
AcDbSymbolTable
 70
     0
  0
ENDTAB
  0
TABLE
  2
APPID
  5
9
330
0
100
AcDbSymbolTable
 70
     1
  0
APPID
  5
12
330
9
100
AcDbSymbolTableRecord
100
AcDbRegAppTableRecord
  2
ACAD
 70
     0
  0
ENDTAB
  0
TABLE
  2
DIMSTYLE
  5
A
330
0
100
AcDbSymbolTable
 70
     1
100
AcDbDimStyleTable
  0
DIMSTYLE
105
27
330
A
100
AcDbSymbolTableRecord
100
AcDbDimStyleTableRecord
  2
ISO-25
 70
     0
 41
2.5
 42
0.625
 43
3.75
 44
1.25
 73
     0
 74
     0
 77
     1
 78
     8
140
2.5
141
2.5
143
0.0393700787
147
0.625
171
     3
172
     1
178
     0
271
     2
272
     2
274
     3
278
    44
283
     0
284
     8
340
11
  0
ENDTAB
  0
TABLE
  2
BLOCK_RECORD
  5
1
330
0
100
AcDbSymbolTable
 70
     4
  0
BLOCK_RECORD
  5
1F
330
1
100
AcDbSymbolTableRecord
100
AcDbBlockTableRecord
  2
*Model_Space
340
22
  0
BLOCK_RECORD
  5
1B
330
1
100
AcDbSymbolTableRecord
100
AcDbBlockTableRecord
  2
*Paper_Space
340
1E
  0
BLOCK_RECORD
  5
23
330
1
100
AcDbSymbolTableRecord
100
AcDbBlockTableRecord
  2
*Paper_Space0
340
26
  0
BLOCK_RECORD
  5
93
330
1
100
AcDbSymbolTableRecord
100
AcDbBlockTableRecord
  2
SW_CENTERMARKSYMBOL_0
340
0
102
{BLKREFS
331
9E
102
}
  0
BLOCK_RECORD
  5
E9
330
1
100
AcDbSymbolTableRecord
100
AcDbBlockTableRecord
  2
SW_CENTERMARKSYMBOL_1
340
0
102
{BLKREFS
331
F4
102
}
  0
BLOCK_RECORD
  5
F5
330
1
100
AcDbSymbolTableRecord
100
AcDbBlockTableRecord
  2
SW_CENTERMARKSYMBOL_2
340
0
102
{BLKREFS
331
100
102
}
  0
ENDTAB
  0
ENDSEC
  0
SECTION
  2
BLOCKS
  0
BLOCK
  5
20
330
1F
100
AcDbEntity
  8
0
100
AcDbBlockBegin
  2
*Model_Space
 70
     0
 10
0.0
 20
0.0
 30
0.0
  3
*Model_Space
  1

  0
ENDBLK
  5
21
330
1F
100
AcDbEntity
  8
0
100
AcDbBlockEnd
  0
BLOCK
  5
1C
330
1B
100
AcDbEntity
 67
     1
  8
0
100
AcDbBlockBegin
  2
*Paper_Space
 70
     0
 10
0.0
 20
0.0
 30
0.0
  3
*Paper_Space
  1

  0
ENDBLK
  5
1D
330
1B
100
AcDbEntity
 67
     1
  8
0
100
AcDbBlockEnd
  0
BLOCK
  5
24
330
23
100
AcDbEntity
  8
0
100
AcDbBlockBegin
  2
*Paper_Space0
 70
     0
 10
0.0
 20
0.0
 30
0.0
  3
*Paper_Space0
  1

  0
ENDBLK
  5
25
330
23
100
AcDbEntity
  8
0
100
AcDbBlockEnd
  0
BLOCK
  5
94
330
93
100
AcDbEntity
  8
0
100
AcDbBlockBegin
  2
SW_CENTERMARKSYMBOL_0
 70
     0
 10
0.0
 20
0.0
 30
0.0
  3
SW_CENTERMARKSYMBOL_0
  1

  0
LINE
  5
96
330
93
100
AcDbEntity
  8
FORMAT
 62
     0
100
AcDbLine
 10
0.0
 20
0.0
 30
0.0
 11
0.0
 21
2.5
 31
0.0
  0
LINE
  5
97
330
93
100
AcDbEntity
  8
FORMAT
 62
     0
100
AcDbLine
 10
0.0
 20
0.0
 30
0.0
 11
-2.5
 21
0.0
 31
0.0
  0
LINE
  5
98
330
93
100
AcDbEntity
  8
FORMAT
 62
     0
100
AcDbLine
 10
0.0
 20
0.0
 30
0.0
 11
0.0
 21
-2.5
 31
0.0
  0
LINE
  5
99
330
93
100
AcDbEntity
  8
FORMAT
 62
     0
100
AcDbLine
 10
0.0
 20
0.0
 30
0.0
 11
2.5
 21
0.0
 31
0.0
  0
LINE
  5
9A
330
93
100
AcDbEntity
  8
FORMAT
 62
     0
100
AcDbLine
 10
0.0
 20
5.0
 30
0.0
 11
0.0
 21
227.5
 31
0.0
  0
LINE
  5
9B
330
93
100
AcDbEntity
  8
FORMAT
 62
     0
100
AcDbLine
 10
-5.0
 20
0.0
 30
0.0
 11
-227.5
 21
0.0
 31
0.0
  0
LINE
  5
9C
330
93
100
AcDbEntity
  8
FORMAT
 62
     0
100
AcDbLine
 10
0.0
 20
-5.0
 30
0.0
 11
0.0
 21
-227.5
 31
0.0
  0
LINE
  5
9D
330
93
100
AcDbEntity
  8
FORMAT
 62
     0
100
AcDbLine
 10
5.0
 20
0.0
 30
0.0
 11
227.5
 21
0.0
 31
0.0
  0
ENDBLK
  5
95
330
93
100
AcDbEntity
  8
0
100
AcDbBlockEnd
  0
BLOCK
  5
EA
330
E9
100
AcDbEntity
  8
0
100
AcDbBlockBegin
  2
SW_CENTERMARKSYMBOL_1
 70
     0
 10
0.0
 20
0.0
 30
0.0
  3
SW_CENTERMARKSYMBOL_1
  1

  0
LINE
  5
EC
330
E9
100
AcDbEntity
  8
FORMAT
 62
     0
100
AcDbLine
 10
0.0
 20
0.0
 30
0.0
 11
0.0
 21
2.5
 31
0.0
  0
LINE
  5
ED
330
E9
100
AcDbEntity
  8
FORMAT
 62
     0
100
AcDbLine
 10
0.0
 20
0.0
 30
0.0
 11
-2.5
 21
0.0
 31
0.0
  0
LINE
  5
EE
330
E9
100
AcDbEntity
  8
FORMAT
 62
     0
100
AcDbLine
 10
0.0
 20
0.0
 30
0.0
 11
0.0
 21
-2.5
 31
0.0
  0
LINE
  5
EF
330
E9
100
AcDbEntity
  8
FORMAT
 62
     0
100
AcDbLine
 10
0.0
 20
0.0
 30
0.0
 11
2.5
 21
0.0
 31
0.0
  0
LINE
  5
F0
330
E9
100
AcDbEntity
  8
FORMAT
 62
     0
100
AcDbLine
 10
0.0
 20
5.0
 30
0.0
 11
0.0
 21
9.5
 31
0.0
  0
LINE
  5
F1
330
E9
100
AcDbEntity
  8
FORMAT
 62
     0
100
AcDbLine
 10
-5.0
 20
0.0
 30
0.0
 11
-9.5
 21
0.0
 31
0.0
  0
LINE
  5
F2
330
E9
100
AcDbEntity
  8
FORMAT
 62
     0
100
AcDbLine
 10
0.0
 20
-5.0
 30
0.0
 11
0.0
 21
-9.5
 31
0.0
  0
LINE
  5
F3
330
E9
100
AcDbEntity
  8
FORMAT
 62
     0
100
AcDbLine
 10
5.0
 20
0.0
 30
0.0
 11
9.5
 21
0.0
 31
0.0
  0
ENDBLK
  5
EB
330
E9
100
AcDbEntity
  8
0
100
AcDbBlockEnd
  0
BLOCK
  5
F6
330
F5
100
AcDbEntity
  8
0
100
AcDbBlockBegin
  2
SW_CENTERMARKSYMBOL_2
 70
     0
 10
0.0
 20
0.0
 30
0.0
  3
SW_CENTERMARKSYMBOL_2
  1

  0
LINE
  5
F8
330
F5
100
AcDbEntity
  8
FORMAT
 62
     0
100
AcDbLine
 10
0.0
 20
0.0
 30
0.0
 11
0.0
 21
2.5
 31
0.0
  0
LINE
  5
F9
330
F5
100
AcDbEntity
  8
FORMAT
 62
     0
100
AcDbLine
 10
0.0
 20
0.0
 30
0.0
 11
-2.5
 21
0.0
 31
0.0
  0
LINE
  5
FA
330
F5
100
AcDbEntity
  8
FORMAT
 62
     0
100
AcDbLine
 10
0.0
 20
0.0
 30
0.0
 11
0.0
 21
-2.5
 31
0.0
  0
LINE
  5
FB
330
F5
100
AcDbEntity
  8
FORMAT
 62
     0
100
AcDbLine
 10
0.0
 20
0.0
 30
0.0
 11
2.5
 21
0.0
 31
0.0
  0
LINE
  5
FC
330
F5
100
AcDbEntity
  8
FORMAT
 62
     0
100
AcDbLine
 10
0.0
 20
5.0
 30
0.0
 11
0.0
 21
9.5
 31
0.0
  0
LINE
  5
FD
330
F5
100
AcDbEntity
  8
FORMAT
 62
     0
100
AcDbLine
 10
-5.0
 20
0.0
 30
0.0
 11
-9.5
 21
0.0
 31
0.0
  0
LINE
  5
FE
330
F5
100
AcDbEntity
  8
FORMAT
 62
     0
100
AcDbLine
 10
0.0
 20
-5.0
 30
0.0
 11
0.0
 21
-9.5
 31
0.0
  0
LINE
  5
FF
330
F5
100
AcDbEntity
  8
FORMAT
 62
     0
100
AcDbLine
 10
5.0
 20
0.0
 30
0.0
 11
9.5
 21
0.0
 31
0.0
  0
ENDBLK
  5
F7
330
F5
100
AcDbEntity
  8
0
100
AcDbBlockEnd
  0
ENDSEC
  0
SECTION
  2
ENTITIES
  0
LINE
  5
83
330
1F
100
AcDbEntity
  8
0
  6
Continuous
 62
     7
370
    25
100
AcDbLine
 10
111.4933695566
 20
364.6776680327
 30
0.0
 11
111.4933695566
 21
367.7433228703
 31
0.0
  0
LINE
  5
84
330
1F
100
AcDbEntity
  8
0
  6
Continuous
 62
     7
370
    25
100
AcDbLine
 10
97.4933695566
 20
367.7433228703
 30
0.0
 11
97.4933695566
 21
362.7873661999
 31
0.0
  0
LINE
  5
85
330
1F
100
AcDbEntity
  8
0
  6
Continuous
 62
     7
370
    25
100
AcDbLine
 10
181.4933695566
 20
362.7860642712
 30
0.0
 11
181.4933695566
 21
367.7433228703
 31
0.0
  0
LINE
  5
86
330
1F
100
AcDbEntity
  8
0
  6
Continuous
 62
     7
370
    25
100
AcDbLine
 10
167.4933695566
 20
367.7433228703
 30
0.0
 11
167.4933695566
 21
364.6858322542
 31
0.0
  0
CIRCLE
  5
87
330
1F
100
AcDbEntity
  8
0
  6
Continuous
 62
     7
370
    25
100
AcDbCircle
 10
139.4933695566
 20
107.7433228703
 30
0.0
 40
258.0
  0
ARC
  5
88
330
1F
100
AcDbEntity
  8
0
  6
Continuous
 62
     7
370
    25
100
AcDbCircle
 10
139.4933695566
 20
107.7433228703
 30
0.0
 40
259.9999999999998
100
AcDbArc
 50
99.2962053147
 51
180.0
  0
ARC
  5
89
330
1F
100
AcDbEntity
  8
0
  6
Continuous
 62
     7
370
    25
100
AcDbCircle
 10
139.4933695566
 20
107.7433228703
 30
0.0
 40
259.9999999999998
100
AcDbArc
 50
83.8176957636
 51
96.1823042364
  0
ARC
  5
8A
330
1F
100
AcDbEntity
  8
0
  6
Continuous
 62
     7
370
    25
100
AcDbCircle
 10
139.4933695566
 20
107.7433228703
 30
0.0
 40
259.9999999999998
100
AcDbArc
 50
180.0
 51
80.7037946853
  0
SPLINE
  5
8B
330
1F
100
AcDbEntity
  8
0
  6
Continuous
 62
     7
370
    25
100
AcDbSpline
210
0.0
220
0.0
230
1.0
 70
     8
 71
     3
 72
    15
 73
    11
 74
     0
 42
0.00000001
 43
0.00000001
 40
0.0
 40
0.0
 40
0.0
 40
0.0
 40
0.1424214795082318
 40
0.2848018749741315
 40
0.4280994967320075
 40
0.5717858013776574
 40
0.71501894979158
 40
0.8573450428136644
 40
0.998709392673217
 40
1.0
 40
1.0
 40
1.0
 40
1.0
 10
179.5472584914712
 20
362.9574413272211
 30
0.0
 10
178.9436998647774
 20
363.0371759744679
 30
0.0
 10
177.7367567187524
 20
363.1966222680654
 30
0.0
 10
175.4090254175107
 20
363.5162831821933
 30
0.0
 10
173.0108698268934
 20
363.8438477070712
 30
0.0
 10
170.7699508140628
 20
364.1506731462933
 30
0.0
 10
168.9329203198084
 20
364.4094341356318
 30
0.0
 10
167.8311700141446
 20
364.5875997118071
 30
0.0
 10
167.3645349459964
 20
364.6803270431735
 30
0.0
 10
167.495747832784
 20
364.6857828948434
 30
0.0
 10
167.4969349230639
 20
364.6858322542369
 30
0.0
  0
SPLINE
  5
8C
330
1F
100
AcDbEntity
  8
0
  6
Continuous
 62
     7
370
    25
100
AcDbSpline
210
0.0
220
0.0
230
1.0
 70
     8
 71
     3
 72
    10
 73
     6
 74
     0
 42
0.00000001
 43
0.00000001
 40
0.0
 40
0.0
 40
0.0
 40
0.0
 40
0.2992137513289376
 40
0.7341472209925185
 40
1.0
 40
1.0
 40
1.0
 40
1.0
 10
181.408340671224
 20
362.7860642712417
 30
0.0
 10
181.4060142754562
 20
362.7726118205779
 30
0.0
 10
181.4003062590956
 20
362.7396050512484
 30
0.0
 10
180.6500308238283
 20
362.8181354125109
 30
0.0
 10
179.8505517382521
 20
362.9191283029199
 30
0.0
 10
179.5472584914712
 20
362.9574413272211
 30
0.0
  0
SPLINE
  5
8D
330
1F
100
AcDbEntity
  8
0
  6
Continuous
 62
     7
370
    25
100
AcDbSpline
210
0.0
220
0.0
230
1.0
 70
     8
 71
     3
 72
    15
 73
    11
 74
     0
 42
0.00000001
 43
0.00000001
 40
0.0
 40
0.0
 40
0.0
 40
0.0
 40
0.1348443854009681
 40
0.2696616503728463
 40
0.4051308267604732
 40
0.5411565054014662
 40
0.67700830531803
 40
0.8117971222640601
 40
0.9450303422060329
 40
1.0
 40
1.0
 40
1.0
 40
1.0
 10
110.1505531593694
 20
364.4287485099883
 30
0.0
 10
109.6215722820566
 20
364.3517114670578
 30
0.0
 10
108.5637169181297
 20
364.1976528751875
 30
0.0
 10
106.3462335388735
 20
363.8946840330757
 30
0.0
 10
103.9604028269775
 20
363.5684381700849
 30
0.0
 10
101.6188055495829
 20
363.2477433267104
 30
0.0
 10
99.59490774145722
 20
362.9743528573316
 30
0.0
 10
98.18382082491894
 20
362.8000435544722
 30
0.0
 10
97.48716441287118
 20
362.7340783871277
 30
0.0
 10
97.56490097798843
 20
362.7753203789234
 30
0.0
 10
97.58760601010049
 20
362.7873661999174
 30
0.0
  0
SPLINE
  5
8E
330
1F
100
AcDbEntity
  8
0
  6
Continuous
 62
     7
370
    25
100
AcDbSpline
210
0.0
220
0.0
230
1.0
 70
     8
 71
     3
 72
    10
 73
     6
 74
     0
 42
0.00000001
 43
0.00000001
 40
0.0
 40
0.0
 40
0.0
 40
0.0
 40
0.1399767450485334
 40
0.6712509091882831
 40
1.0
 40
1.0
 40
1.0
 40
1.0
 10
111.4173339100223
 20
364.6776680327191
 30
0.0
 10
111.4397399182382
 20
364.6749018738544
 30
0.0
 10
111.547186718641
 20
364.6616369086471
 30
0.0
 10
111.0680311540873
 20
364.5714988180903
 30
0.0
 10
110.404277144183
 20
364.4682253990401
 30
0.0
 10
110.1505531593694
 20
364.4287485099883
 30
0.0
  0
CIRCLE
  5
8F
330
1F
100
AcDbEntity
  8
0
  6
Continuous
 62
     7
370
    25
100
AcDbCircle
 10
139.4933695566
 20
107.7433228703
 30
0.0
 40
225.0
  0
LINE
  5
90
330
1F
100
AcDbEntity
  8
0
  6
Continuous
 62
     7
370
    25
100
AcDbLine
 10
111.4933695566
 20
367.7433228703
 30
0.0
 11
97.4933695566
 21
367.7433228703
 31
0.0
  0
LINE
  5
91
330
1F
100
AcDbEntity
  8
0
  6
Continuous
 62
     7
370
    25
100
AcDbLine
 10
174.4933695566
 20
367.7433228703
 30
0.0
 11
167.4933695566
 21
367.7433228703
 31
0.0
  0
LINE
  5
92
330
1F
100
AcDbEntity
  8
0
  6
Continuous
 62
     7
370
    25
100
AcDbLine
 10
181.4933695566
 20
367.7433228703
 30
0.0
 11
174.4933695566
 21
367.7433228703
 31
0.0
  0
INSERT
  5
9E
330
1F
100
AcDbEntity
  8
FORMAT
 62
     7
100
AcDbBlockReference
  2
SW_CENTERMARKSYMBOL_0
 10
139.4933695566
 20
107.7433228703
 30
0.0
  0
ARC
  5
9F
330
1F
100
AcDbEntity
  8
0
  6
Continuous
 62
     7
370
    25
100
AcDbCircle
 10
787.0390196604
 20
-4359.8191771297
 30
0.0
 40
4727.562500000008
100
AcDbArc
 50
90.0
 51
91.375697488
  0
LINE
  5
A0
330
1F
100
AcDbEntity
  8
0
  6
Continuous
 62
     7
370
    25
100
AcDbLine
 10
659.5390196604
 20
366.023704453
 30
0.0
 11
649.5390196604
 21
365.7433228703
 31
0.0
  0
ARC
  5
A1
330
1F
100
AcDbEntity
  8
0
  6
Continuous
 62
     7
370
    25
100
AcDbCircle
 10
787.0390196604
 20
4575.3058228703
 30
0.0
 40
4727.562500000009
100
AcDbArc
 50
268.3333312194
 51
270.0
  0
LINE
  5
A2
330
1F
100
AcDbEntity
  8
0
  6
Continuous
 62
     7
370
    25
100
AcDbLine
 10
787.0390196604
 20
-152.2566771297
 30
0.0
 11
832.0390196604
 21
-152.2566771297
 31
0.0
  0
LINE
  5
A3
330
1F
100
AcDbEntity
  8
0
  6
Continuous
 62
     7
370
    25
100
AcDbLine
 10
832.0390196604
 20
367.7433228703
 30
0.0
 11
787.0390196604
 21
367.7433228703
 31
0.0
  0
LINE
  5
A4
330
1F
100
AcDbEntity
  8
0
  6
Continuous
 62
     7
370
    25
100
AcDbLine
 10
969.5390196604
 20
365.7433228703
 30
0.0
 11
959.5390196604
 21
366.023704453
 31
0.0
  0
ARC
  5
A5
330
1F
100
AcDbEntity
  8
0
  6
Continuous
 62
     7
370
    25
100
AcDbCircle
 10
832.0390196604
 20
-4359.8191771297
 30
0.0
 40
4727.562500000008
100
AcDbArc
 50
88.624302512
 51
90.0
  0
ARC
  5
A6
330
1F
100
AcDbEntity
  8
0
  6
Continuous
 62
     7
370
    25
100
AcDbCircle
 10
832.0390196604
 20
4575.3058228703
 30
0.0
 40
4727.562500000009
100
AcDbArc
 50
270.0
 51
271.6666687806
  0
LINE
  5
A7
330
1F
100
AcDbEntity
  8
0
  6
Continuous
 62
     7
370
    25
100
AcDbLine
 10
673.5390196604
 20
363.9982653374
 30
0.0
 11
673.5390196604
 21
367.7433228703
 31
0.0
  0
LINE
  5
A8
330
1F
100
AcDbEntity
  8
0
  6
Continuous
 62
     7
370
    25
100
AcDbLine
 10
659.5390196604
 20
367.7433228703
 30
0.0
 11
659.5390196604
 21
363.640374582
 31
0.0
  0
LINE
  5
A9
330
1F
100
AcDbEntity
  8
0
  6
Continuous
 62
     7
370
    25
100
AcDbLine
 10
959.5390196604
 20
363.6403520601
 30
0.0
 11
959.5390196604
 21
367.7433228703
 31
0.0
  0
LINE
  5
AA
330
1F
100
AcDbEntity
  8
0
  6
Continuous
 62
     7
370
    25
100
AcDbLine
 10
945.5390196604
 20
367.7433228703
 30
0.0
 11
945.5390196604
 21
363.9990885456
 31
0.0
  0
LINE
  5
AB
330
1F
100
AcDbEntity
  8
0
  6
Continuous
 62
     7
370
    25
100
AcDbLine
 10
649.5390196604
 20
107.7433228703
 30
0.0
 11
649.5390196604
 21
365.7433228703
 31
0.0
  0
LINE
  5
AC
330
1F
100
AcDbEntity
  8
0
  6
Continuous
 62
     7
370
    25
100
AcDbLine
 10
649.5390196604
 20
-150.2566771297
 30
0.0
 11
649.5390196604
 21
107.7433228703
 31
0.0
  0
SPLINE
  5
AD
330
1F
100
AcDbEntity
  8
0
  6
Continuous
 62
     7
370
    25
100
AcDbSpline
210
0.0
220
0.0
230
1.0
 70
     8
 71
     3
 72
    18
 73
    14
 74
     0
 42
0.00000001
 43
0.00000001
 40
0.0
 40
0.0
 40
0.0
 40
0.0
 40
0.0153350516748458
 40
0.1236557933316687
 40
0.2326389234655705
 40
0.3414929429968533
 40
0.4493244176924597
 40
0.5557657116640407
 40
0.6612901900826653
 40
0.7668952793013094
 40
0.873452167595275
 40
0.9812269573970772
 40
1.0
 40
1.0
 40
1.0
 40
1.0
 10
673.4908461066065
 20
363.9982653374141
 30
0.0
 10
673.506272119492
 20
363.9839374252346
 30
0.0
 10
673.6306613880616
 20
363.8684028065765
 30
0.0
 10
673.0973561733628
 20
363.6095755666158
 30
0.0
 10
671.8819941670628
 20
363.2705889797769
 30
0.0
 10
669.9743011638438
 20
362.982262669915
 30
0.0
 10
667.7010327356722
 20
362.7956969563439
 30
0.0
 10
665.3079524156393
 20
362.7362031264452
 30
0.0
 10
663.0760190298507
 20
362.807606302633
 30
0.0
 10
661.2120101482049
 20
362.9939092992871
 30
0.0
 10
660.0007909407641
 20
363.2649100091887
 30
0.0
 10
659.455872278569
 20
363.496861171025
 30
0.0
 10
659.5783648810564
 20
363.6218350337106
 30
0.0
 10
659.5965363408225
 20
363.6403745819895
 30
0.0
  0
LINE
  5
AE
330
1F
100
AcDbEntity
  8
0
  6
Continuous
 62
     7
370
    25
100
AcDbLine
 10
969.5390196604
 20
107.7433228703
 30
0.0
 11
969.5390196604
 21
365.7433228703
 31
0.0
  0
LINE
  5
AF
330
1F
100
AcDbEntity
  8
0
  6
Continuous
 62
     7
370
    25
100
AcDbLine
 10
969.5390196604
 20
-150.2566771297
 30
0.0
 11
969.5390196604
 21
107.7433228703
 31
0.0
  0
SPLINE
  5
B0
330
1F
100
AcDbEntity
  8
0
  6
Continuous
 62
     7
370
    25
100
AcDbSpline
210
0.0
220
0.0
230
1.0
 70
     8
 71
     3
 72
    18
 73
    14
 74
     0
 42
0.00000001
 43
0.00000001
 40
0.0
 40
0.0
 40
0.0
 40
0.0
 40
0.0237176919788272
 40
0.1324704404894153
 40
0.2410841726805988
 40
0.3488480482798473
 40
0.4553682215762934
 40
0.560946155980458
 40
0.6664898238624064
 40
0.7729671286112282
 40
0.880806536724098
 40
0.9896524591613232
 40
1.0
 40
1.0
 40
1.0
 40
1.0
 10
959.4705471317504
 20
363.6403520600669
 30
0.0
 10
959.4915545815113
 20
363.6168835182216
 30
0.0
 10
959.6088875043725
 20
363.4858046561359
 30
0.0
 10
959.0280770329906
 20
363.2471147267419
 30
0.0
 10
957.7474747078493
 20
362.9757426416248
 30
0.0
 10
955.8094470271138
 20
362.795175565832
 30
0.0
 10
953.5340735627191
 20
362.7361418280304
 30
0.0
 10
951.1591472189087
 20
362.8084900909931
 30
0.0
 10
948.9510350941143
 20
363.0012124277995
 30
0.0
 10
947.1100505387066
 20
363.2889485214635
 30
0.0
 10
945.9442621059084
 20
363.6255504680036
 30
0.0
 10
945.4315194590386
 20
363.878958375418
 30
0.0
 10
945.562472883512
 20
363.9894927280696
 30
0.0
 10
945.5738413417349
 20
363.9990885456314
 30
0.0
  0
LINE
  5
B1
330
1F
100
AcDbEntity
  8
0
  6
Continuous
 62
     7
370
    25
100
AcDbLine
 10
673.5390196604
 20
367.7433228703
 30
0.0
 11
659.5390196604
 21
367.7433228703
 31
0.0
  0
LINE
  5
B2
330
1F
100
AcDbEntity
  8
0
  6
Continuous
 62
     7
370
    25
100
AcDbLine
 10
959.5390196604
 20
367.7433228703
 30
0.0
 11
945.5390196604
 21
367.7433228703
 31
0.0
  0
LINE
  5
B3
330
1F
100
AcDbEntity
  8
0
  6
Continuous
 62
     1
370
    25
100
AcDbLine
 10
787.0390196604
 20
107.7433228703
 30
0.0
 11
787.0390196604
 21
367.7433228703
 31
0.0
  0
LINE
  5
B4
330
1F
100
AcDbEntity
  8
0
  6
Continuous
 62
     1
370
    25
100
AcDbLine
 10
787.0390196604
 20
-152.2566771297
 30
0.0
 11
787.0390196604
 21
107.7433228703
 31
0.0
  0
LINE
  5
B5
330
1F
100
AcDbEntity
  8
0
  6
Continuous
 62
     1
370
    25
100
AcDbLine
 10
832.0390196604
 20
107.7433228703
 30
0.0
 11
832.0390196604
 21
367.7433228703
 31
0.0
  0
LINE
  5
B6
330
1F
100
AcDbEntity
  8
0
  6
Continuous
 62
     1
370
    25
100
AcDbLine
 10
832.0390196604
 20
-152.2566771297
 30
0.0
 11
832.0390196604
 21
107.7433228703
 31
0.0
  0
ARC
  5
B7
330
1F
100
AcDbEntity
  8
0
  6
Continuous
 62
     7
370
    25
100
AcDbCircle
 10
4607.0558695566
 20
662.794581474
 30
0.0
 40
4727.562500000008
100
AcDbArc
 50
180.0
 51
181.6666687806
  0
ARC
  5
B8
330
1F
100
AcDbEntity
  8
0
  6
Continuous
 62
     7
370
    25
100
AcDbCircle
 10
-4328.0691304434
 20
662.794581474
 30
0.0
 40
4727.562500000009
100
AcDbArc
 50
358.3333312194
 51
0.0
  0
LINE
  5
B9
330
1F
100
AcDbEntity
  8
0
  6
Continuous
 62
     7
370
    25
100
AcDbLine
 10
399.4933695566
 20
662.794581474
 30
0.0
 11
399.4933695566
 21
707.794581474
 31
0.0
  0
LINE
  5
BA
330
1F
100
AcDbEntity
  8
0
  6
Continuous
 62
     7
370
    25
100
AcDbLine
 10
-120.5066304434
 20
707.794581474
 30
0.0
 11
-120.5066304434
 21
662.794581474
 31
0.0
  0
ARC
  5
BB
330
1F
100
AcDbEntity
  8
0
  6
Continuous
 62
     7
370
    25
100
AcDbCircle
 10
4607.0558695566
 20
707.794581474
 30
0.0
 40
4727.562500000008
100
AcDbArc
 50
178.3333312194
 51
180.0
  0
ARC
  5
BC
330
1F
100
AcDbEntity
  8
0
  6
Continuous
 62
     7
370
    25
100
AcDbCircle
 10
-4328.0691304434
 20
707.794581474
 30
0.0
 40
4727.562500000009
100
AcDbArc
 50
0.0
 51
1.6666687806
  0
LINE
  5
BD
330
1F
100
AcDbEntity
  8
0
  6
Continuous
 62
     7
370
    25
100
AcDbLine
 10
397.4933695566
 20
525.294581474
 30
0.0
 11
-118.5066304434
 21
525.294581474
 31
0.0
  0
LINE
  5
BE
330
1F
100
AcDbEntity
  8
0
  6
Continuous
 62
     7
370
    25
100
AcDbLine
 10
397.4933695566
 20
845.294581474
 30
0.0
 11
-118.5066304434
 21
845.294581474
 31
0.0
  0
LINE
  5
BF
330
1F
100
AcDbEntity
  8
0
  6
Continuous
 62
     1
370
    25
100
AcDbLine
 10
399.4933695566
 20
662.794581474
 30
0.0
 11
-120.5066304434
 21
662.794581474
 31
0.0
  0
LINE
  5
C0
330
1F
100
AcDbEntity
  8
0
  6
Continuous
 62
     1
370
    25
100
AcDbLine
 10
399.4933695566
 20
707.794581474
 30
0.0
 11
-120.5066304434
 21
707.794581474
 31
0.0
  0
ARC
  5
C1
330
1F
100
AcDbEntity
  8
0
  6
Continuous
 62
     7
370
    25
100
AcDbCircle
 10
-546.2355250206
 20
4575.3058228703
 30
0.0
 40
4727.562500000009
100
AcDbArc
 50
270.0
 51
271.6666687806
  0
LINE
  5
C2
330
1F
100
AcDbEntity
  8
0
  6
Continuous
 62
     7
370
    25
100
AcDbLine
 10
-408.7355250206
 20
365.7433228703
 30
0.0
 11
-418.7355250206
 21
366.023704453
 31
0.0
  0
ARC
  5
C3
330
1F
100
AcDbEntity
  8
0
  6
Continuous
 62
     7
370
    25
100
AcDbCircle
 10
-546.2355250206
 20
-4359.8191771297
 30
0.0
 40
4727.562500000008
100
AcDbArc
 50
88.624302512
 51
90.0
  0
LINE
  5
C4
330
1F
100
AcDbEntity
  8
0
  6
Continuous
 62
     7
370
    25
100
AcDbLine
 10
-546.2355250206
 20
367.7433228703
 30
0.0
 11
-591.2355250206
 21
367.7433228703
 31
0.0
  0
LINE
  5
C5
330
1F
100
AcDbEntity
  8
0
  6
Continuous
 62
     7
370
    25
100
AcDbLine
 10
-591.2355250206
 20
-152.2566771297
 30
0.0
 11
-546.2355250206
 21
-152.2566771297
 31
0.0
  0
ARC
  5
C6
330
1F
100
AcDbEntity
  8
0
  6
Continuous
 62
     7
370
    25
100
AcDbCircle
 10
-591.2355250206
 20
4575.3058228703
 30
0.0
 40
4727.562500000009
100
AcDbArc
 50
268.3333312194
 51
270.0
  0
ARC
  5
C7
330
1F
100
AcDbEntity
  8
0
  6
Continuous
 62
     7
370
    25
100
AcDbCircle
 10
-591.2355250206
 20
-4359.8191771297
 30
0.0
 40
4727.562500000008
100
AcDbArc
 50
90.0
 51
91.375697488
  0
LINE
  5
C8
330
1F
100
AcDbEntity
  8
0
  6
Continuous
 62
     7
370
    25
100
AcDbLine
 10
-718.7355250206
 20
366.023704453
 30
0.0
 11
-728.7355250206
 21
365.7433228703
 31
0.0
  0
LINE
  5
C9
330
1F
100
AcDbEntity
  8
0
  6
Continuous
 62
     7
370
    25
100
AcDbLine
 10
-418.7355250206
 20
363.6404144538
 30
0.0
 11
-418.7355250206
 21
367.7433228703
 31
0.0
  0
LINE
  5
CA
330
1F
100
AcDbEntity
  8
0
  6
Continuous
 62
     7
370
    25
100
AcDbLine
 10
-432.7355250206
 20
367.7433228703
 30
0.0
 11
-432.7355250206
 21
363.9960274412
 31
0.0
  0
LINE
  5
CB
330
1F
100
AcDbEntity
  8
0
  6
Continuous
 62
     7
370
    25
100
AcDbLine
 10
-704.7355250206
 20
363.9964447789
 30
0.0
 11
-704.7355250206
 21
367.7433228703
 31
0.0
  0
LINE
  5
CC
330
1F
100
AcDbEntity
  8
0
  6
Continuous
 62
     7
370
    25
100
AcDbLine
 10
-718.7355250206
 20
367.7433228703
 30
0.0
 11
-718.7355250206
 21
363.6407102944
 31
0.0
  0
LINE
  5
CD
330
1F
100
AcDbEntity
  8
0
  6
Continuous
 62
     7
370
    25
100
AcDbLine
 10
-408.7355250206
 20
365.7433228703
 30
0.0
 11
-408.7355250206
 21
-150.2566771297
 31
0.0
  0
SPLINE
  5
CE
330
1F
100
AcDbEntity
  8
0
  6
Continuous
 62
     7
370
    25
100
AcDbSpline
210
0.0
220
0.0
230
1.0
 70
     8
 71
     3
 72
    10
 73
     6
 74
     0
 42
0.00000001
 43
0.00000001
 40
0.0
 40
0.0
 40
0.0
 40
0.0
 40
0.4153254932462033
 40
0.8305861430919929
 40
1.0
 40
1.0
 40
1.0
 40
1.0
 10
-430.5141356092863
 20
363.1962264222122
 30
0.0
 10
-431.0314045821638
 20
363.3018642761664
 30
0.0
 10
-432.0658617684189
 20
363.513123491185
 30
0.0
 10
-432.7421520186227
 20
363.8052424239972
 30
0.0
 10
-432.6608993724011
 20
363.953165586834
 30
0.0
 10
-432.6373558041055
 20
363.9960274411696
 30
0.0
  0
SPLINE
  5
CF
330
1F
100
AcDbEntity
  8
0
  6
Continuous
 62
     7
370
    25
100
AcDbSpline
210
0.0
220
0.0
230
1.0
 70
     8
 71
     3
 72
    15
 73
    11
 74
     0
 42
0.00000001
 43
0.00000001
 40
0.0
 40
0.0
 40
0.0
 40
0.0
 40
0.0412896188522599
 40
0.1886049559919343
 40
0.335672229772526
 40
0.4815356131521972
 40
0.6257097239153245
 40
0.7686655332824042
 40
0.9116635166019338
 40
1.0
 40
1.0
 40
1.0
 40
1.0
 10
-418.8166008886465
 20
363.6404144537684
 30
0.0
 10
-418.792966499276
 20
363.610176784914
 30
0.0
 10
-418.6850080561848
 20
363.4720555243616
 30
0.0
 10
-419.3045325612075
 20
363.2284168242797
 30
0.0
 10
-420.632951143555
 20
362.9614171734938
 30
0.0
 10
-422.5984580005793
 20
362.7877879039402
 30
0.0
 10
-424.889876416045
 20
362.7366989901047
 30
0.0
 10
-427.2539435933955
 20
362.8176294990693
 30
0.0
 10
-429.1852370552354
 20
362.9893169111473
 30
0.0
 10
-430.1469135485543
 20
363.1390499456431
 30
0.0
 10
-430.5141356092863
 20
363.1962264222122
 30
0.0
  0
LINE
  5
D0
330
1F
100
AcDbEntity
  8
0
  6
Continuous
 62
     7
370
    25
100
AcDbLine
 10
-728.7355250206
 20
365.7433228703
 30
0.0
 11
-728.7355250206
 21
-150.2566771297
 31
0.0
  0
SPLINE
  5
D1
330
1F
100
AcDbEntity
  8
0
  6
Continuous
 62
     7
370
    25
100
AcDbSpline
210
0.0
220
0.0
230
1.0
 70
     8
 71
     3
 72
    10
 73
     6
 74
     0
 42
0.00000001
 43
0.00000001
 40
0.0
 40
0.0
 40
0.0
 40
0.0
 40
0.4191883894405086
 40
0.8382558564359169
 40
1.0
 40
1.0
 40
1.0
 40
1.0
 10
-716.5788923031671
 20
362.9574413272211
 30
0.0
 10
-717.0859600172943
 20
363.0371063103604
 30
0.0
 10
-718.0999491727289
 20
363.196413295839
 30
0.0
 10
-718.7500291731549
 20
363.450938601476
 30
0.0
 10
-718.6642739716424
 20
363.599374058304
 30
0.0
 10
-718.6403929035428
 20
363.6407102943618
 30
0.0
  0
SPLINE
  5
D2
330
1F
100
AcDbEntity
  8
0
  6
Continuous
 62
     7
370
    25
100
AcDbSpline
210
0.0
220
0.0
230
1.0
 70
     8
 71
     3
 72
    15
 73
    11
 74
     0
 42
0.00000001
 43
0.00000001
 40
0.0
 40
0.0
 40
0.0
 40
0.0
 40
0.0443855227070969
 40
0.1903700293742683
 40
0.33711035065752
 40
0.4834679676435825
 40
0.6282993714910016
 40
0.7712876412520584
 40
0.9132348611551642
 40
1.0
 40
1.0
 40
1.0
 40
1.0
 10
-704.8195746559595
 20
363.9964447788677
 30
0.0
 10
-704.7957321315314
 20
363.9649515625241
 30
0.0
 10
-704.6934712635973
 20
363.8298767869045
 30
0.0
 10
-705.3250727356333
 20
363.5527891519469
 30
0.0
 10
-706.6681674703628
 20
363.2182234039984
 30
0.0
 10
-708.6519860638334
 20
362.9439688491079
 30
0.0
 10
-710.9660827028506
 20
362.7766663759105
 30
0.0
 10
-713.3431705309164
 20
362.7399272310066
 30
0.0
 10
-715.2686482753465
 20
362.816562272106
 30
0.0
 10
-716.218538535111
 20
362.9186956452924
 30
0.0
 10
-716.5788923031671
 20
362.9574413272211
 30
0.0
  0
LINE
  5
D3
330
1F
100
AcDbEntity
  8
0
  6
Continuous
 62
     7
370
    25
100
AcDbLine
 10
-418.7355250206
 20
367.7433228703
 30
0.0
 11
-432.7355250206
 21
367.7433228703
 31
0.0
  0
LINE
  5
D4
330
1F
100
AcDbEntity
  8
0
  6
Continuous
 62
     7
370
    25
100
AcDbLine
 10
-704.7355250206
 20
367.7433228703
 30
0.0
 11
-718.7355250206
 21
367.7433228703
 31
0.0
  0
LINE
  5
D5
330
1F
100
AcDbEntity
  8
0
  6
Continuous
 62
     1
370
    25
100
AcDbLine
 10
-546.2355250206
 20
367.7433228703
 30
0.0
 11
-546.2355250206
 21
-152.2566771297
 31
0.0
  0
LINE
  5
D6
330
1F
100
AcDbEntity
  8
0
  6
Continuous
 62
     1
370
    25
100
AcDbLine
 10
-591.2355250206
 20
367.7433228703
 30
0.0
 11
-591.2355250206
 21
-152.2566771297
 31
0.0
  0
ARC
  5
D7
330
1F
100
AcDbEntity
  8
0
  6
Continuous
 62
     7
370
    25
100
AcDbCircle
 10
-4328.0691304434
 20
-569.7834401138
 30
0.0
 40
4727.562500000009
100
AcDbArc
 50
0.0
 51
1.6666687806
  0
ARC
  5
D8
330
1F
100
AcDbEntity
  8
0
  6
Continuous
 62
     7
370
    25
100
AcDbCircle
 10
4607.0558695566
 20
-569.7834401138
 30
0.0
 40
4727.562500000008
100
AcDbArc
 50
178.3333312194
 51
180.0
  0
LINE
  5
D9
330
1F
100
AcDbEntity
  8
0
  6
Continuous
 62
     7
370
    25
100
AcDbLine
 10
-120.5066304434
 20
-569.7834401138
 30
0.0
 11
-120.5066304434
 21
-614.7834401138
 31
0.0
  0
LINE
  5
DA
330
1F
100
AcDbEntity
  8
0
  6
Continuous
 62
     7
370
    25
100
AcDbLine
 10
399.4933695566
 20
-614.7834401138
 30
0.0
 11
399.4933695566
 21
-569.7834401138
 31
0.0
  0
ARC
  5
DB
330
1F
100
AcDbEntity
  8
0
  6
Continuous
 62
     7
370
    25
100
AcDbCircle
 10
-4328.0691304434
 20
-614.7834401138
 30
0.0
 40
4727.562500000009
100
AcDbArc
 50
358.3333312194
 51
0.0
  0
ARC
  5
DC
330
1F
100
AcDbEntity
  8
0
  6
Continuous
 62
     7
370
    25
100
AcDbCircle
 10
4607.0558695566
 20
-614.7834401138
 30
0.0
 40
4727.562500000008
100
AcDbArc
 50
180.0
 51
181.6666687806
  0
LINE
  5
DD
330
1F
100
AcDbEntity
  8
0
  6
Continuous
 62
     7
370
    25
100
AcDbLine
 10
-118.5066304434
 20
-432.2834401138
 30
0.0
 11
397.4933695566
 21
-432.2834401138
 31
0.0
  0
CIRCLE
  5
DE
330
1F
100
AcDbEntity
  8
0
  6
Continuous
 62
     7
370
    25
100
AcDbCircle
 10
104.4933695566
 20
-449.2834401138
 30
0.0
 40
7.0
  0
CIRCLE
  5
DF
330
1F
100
AcDbEntity
  8
0
  6
Continuous
 62
     7
370
    25
100
AcDbCircle
 10
104.4933695566
 20
-449.2834401138
 30
0.0
 40
5.0
  0
CIRCLE
  5
E0
330
1F
100
AcDbEntity
  8
0
  6
Continuous
 62
     7
370
    25
100
AcDbCircle
 10
174.4933695566
 20
-449.2834401138
 30
0.0
 40
7.000000000000057
  0
CIRCLE
  5
E1
330
1F
100
AcDbEntity
  8
0
  6
Continuous
 62
     7
370
    25
100
AcDbCircle
 10
174.4933695566
 20
-449.2834401138
 30
0.0
 40
5.000000000000057
  0
LINE
  5
E2
330
1F
100
AcDbEntity
  8
0
  6
Continuous
 62
     7
370
    25
100
AcDbLine
 10
-118.5066304434
 20
-752.2834401138
 30
0.0
 11
397.4933695566
 21
-752.2834401138
 31
0.0
  0
CIRCLE
  5
E3
330
1F
100
AcDbEntity
  8
0
  6
Continuous
 62
     7
370
    25
100
AcDbCircle
 10
104.4933695566
 20
-735.2834401138
 30
0.0
 40
7.0
  0
CIRCLE
  5
E4
330
1F
100
AcDbEntity
  8
0
  6
Continuous
 62
     7
370
    25
100
AcDbCircle
 10
104.4933695566
 20
-735.2834401138
 30
0.0
 40
5.0
  0
CIRCLE
  5
E5
330
1F
100
AcDbEntity
  8
0
  6
Continuous
 62
     7
370
    25
100
AcDbCircle
 10
174.4933695566
 20
-735.2834401138
 30
0.0
 40
7.0
  0
CIRCLE
  5
E6
330
1F
100
AcDbEntity
  8
0
  6
Continuous
 62
     7
370
    25
100
AcDbCircle
 10
174.4933695566
 20
-735.2834401138
 30
0.0
 40
5.0
  0
LINE
  5
E7
330
1F
100
AcDbEntity
  8
0
  6
Continuous
 62
     1
370
    25
100
AcDbLine
 10
-120.5066304434
 20
-569.7834401138
 30
0.0
 11
399.4933695566
 21
-569.7834401138
 31
0.0
  0
LINE
  5
E8
330
1F
100
AcDbEntity
  8
0
  6
Continuous
 62
     1
370
    25
100
AcDbLine
 10
-120.5066304434
 20
-614.7834401138
 30
0.0
 11
399.4933695566
 21
-614.7834401138
 31
0.0
  0
INSERT
  5
F4
330
1F
100
AcDbEntity
  8
FORMAT
 62
     7
100
AcDbBlockReference
  2
SW_CENTERMARKSYMBOL_1
 10
104.4933695566
 20
-449.2834401138
 30
0.0
  0
INSERT
  5
100
330
1F
100
AcDbEntity
  8
FORMAT
 62
     7
100
AcDbBlockReference
  2
SW_CENTERMARKSYMBOL_2
 10
139.4933695566
 20
-740.2834401138
 30
0.0
  0
SPLINE
  5
101
330
1F
100
AcDbEntity
  8
0
  6
Continuous
 62
     7
370
    25
100
AcDbSpline
210
0.0
220
0.0
230
1.0
 70
     8
 71
     3
 72
    11
 73
     7
 74
     0
 42
0.00000001
 43
0.00000001
 40
0.0
 40
0.0
 40
0.0
 40
0.0
 40
0.2410169737868018
 40
0.5181872965443568
 40
0.795299905470004
 40
1.0
 40
1.0
 40
1.0
 40
1.0
 10
716.1475991629351
 20
-349.4545682631156
 30
0.0
 10
708.1278843554702
 20
-354.1018978199914
 30
0.0
 10
690.8854708032486
 20
-364.0936718489791
 30
0.0
 10
664.6233852245718
 20
-379.7682317175429
 30
0.0
 10
639.6776661564704
 20
-394.917265656147
 30
0.0
 10
623.9708221855277
 20
-404.7351752057007
 30
0.0
 10
617.2977053860744
 20
-408.9063541689503
 30
0.0
  0
SPLINE
  5
102
330
1F
100
AcDbEntity
  8
0
  6
Continuous
 62
     7
370
    25
100
AcDbSpline
210
0.0
220
0.0
230
1.0
 70
     8
 71
     3
 72
    12
 73
     8
 74
     0
 42
0.00000001
 43
0.00000001
 40
0.0
 40
0.0
 40
0.0
 40
0.0
 40
0.1320354157837408
 40
0.4093014610211173
 40
0.6865610989889346
 40
0.963802418502649
 40
1.0
 40
1.0
 40
1.0
 40
1.0
 10
875.1873042129556
 20
-855.6321966244558
 30
0.0
 10
879.6745653488688
 20
-853.2598582569722
 30
0.0
 10
893.5847918438627
 20
-845.9057589489662
 30
0.0
 10
916.7668423677729
 20
-833.2733168117838
 30
0.0
 10
944.7161804908521
 20
-817.7207775016046
 30
0.0
 10
964.4920769836006
 20
-806.539450230317
 30
0.0
 10
974.9063511189446
 20
-800.4696056974601
 30
0.0
 10
976.1090465582595
 20
-799.7686279584314
 30
0.0
  0
LINE
  5
103
330
1F
100
AcDbEntity
  8
0
  6
Continuous
 62
     7
370
    25
100
AcDbLine
 10
747.9586359806
 20
-331.0697444372
 30
0.0
 11
716.1388308272
 21
-349.4389269532
 31
0.0
  0
LINE
  5
104
330
1F
100
AcDbEntity
  8
0
  6
Continuous
 62
     7
370
    25
100
AcDbLine
 10
976.1177013126
 20
-799.7843353912
 30
0.0
 11
1007.937506466
 21
-781.4151528752
 31
0.0
  0
SPLINE
  5
105
330
1F
100
AcDbEntity
  8
0
  6
Continuous
 62
     7
370
    25
100
AcDbSpline
210
0.0
220
0.0
230
1.0
 70
     8
 71
     3
 72
    12
 73
     8
 74
     0
 42
0.00000001
 43
0.00000001
 40
0.0
 40
0.0
 40
0.0
 40
0.0
 40
0.1320110992486526
 40
0.4092852761642872
 40
0.6865530456206775
 40
0.9638024960863119
 40
1.0
 40
1.0
 40
1.0
 40
1.0
 10
848.8861611421913
 20
-275.2234065349298
 30
0.0
 10
844.3998584154768
 20
-277.5952392809779
 30
0.0
 10
830.4905912333184
 20
-284.948834743836
 30
0.0
 10
807.3094957478049
 20
-297.5807646381486
 30
0.0
 10
779.3601566344175
 20
-313.1333019804601
 30
0.0
 10
759.5842982910276
 20
-324.3146077673177
 30
0.0
 10
749.1700619164731
 20
-330.3844300859791
 30
0.0
 10
747.9674043163299
 20
-331.0853857471059
 30
0.0
  0
SPLINE
  5
106
330
1F
100
AcDbEntity
  8
0
  6
Continuous
 62
     7
370
    25
100
AcDbSpline
210
0.0
220
0.0
230
1.0
 70
     8
 71
     3
 72
    11
 73
     7
 74
     0
 42
0.00000001
 43
0.00000001
 40
0.0
 40
0.0
 40
0.0
 40
0.0
 40
0.2410231537065908
 40
0.5182018934772831
 40
0.795322917665348
 40
1.0
 40
1.0
 40
1.0
 40
1.0
 10
1007.928851711653
 20
-781.3994454424198
 30
0.0
 10
1015.948528642317
 20
-776.7521378925529
 30
0.0
 10
1033.190904350359
 20
-766.7603859182011
 30
0.0
 10
1059.452951292537
 20
-751.0858468989834
 30
0.0
 10
1084.39771300499
 20
-735.9374014409267
 30
0.0
 10
1100.103605577509
 20
-726.1200896518784
 30
0.0
 10
1106.77577017028
 20
-721.9495071897463
 30
0.0
  0
LINE
  5
107
330
1F
100
AcDbEntity
  8
0
  6
Continuous
 62
     7
370
    25
100
AcDbLine
 10
792.6706362784
 20
-429.4748462532
 30
0.0
 11
792.6706362784
 21
-425.7867507761
 31
0.0
  0
LINE
  5
108
330
1F
100
AcDbEntity
  8
0
  6
Continuous
 62
     7
370
    25
100
AcDbLine
 10
778.6706362784
 20
-425.7867507761
 30
0.0
 11
778.6706362784
 21
-428.5832534341
 31
0.0
  0
LINE
  5
109
330
1F
100
AcDbEntity
  8
0
  6
Continuous
 62
     7
370
    25
100
AcDbLine
 10
743.1731615954
 20
-399.8053684662
 30
0.0
 11
743.1731615954
 21
-397.2124668623
 31
0.0
  0
LINE
  5
10A
330
1F
100
AcDbEntity
  8
0
  6
Continuous
 62
     7
370
    25
100
AcDbLine
 10
729.1731615954
 20
-397.2124668623
 30
0.0
 11
729.1731615954
 21
-401.1059685261
 31
0.0
  0
LINE
  5
10B
330
1F
100
AcDbEntity
  8
0
  6
Continuous
 62
     7
370
    25
100
AcDbLine
 10
994.9031756978
 20
-312.9362517474
 30
0.0
 11
994.9031756978
 21
-309.0403907855
 31
0.0
  0
LINE
  5
10C
330
1F
100
AcDbEntity
  8
0
  6
Continuous
 62
     7
370
    25
100
AcDbLine
 10
980.9031756978
 20
-309.0403907855
 30
0.0
 11
980.9031756978
 21
-311.6316600203
 31
0.0
  0
LINE
  5
10D
330
1F
100
AcDbEntity
  8
0
  6
Continuous
 62
     7
370
    25
100
AcDbLine
 10
945.4057010147
 20
-283.2639437926
 30
0.0
 11
945.4057010147
 21
-280.4661068717
 31
0.0
  0
LINE
  5
10E
330
1F
100
AcDbEntity
  8
0
  6
Continuous
 62
     7
370
    25
100
AcDbLine
 10
931.4057010147
 20
-280.4661068717
 30
0.0
 11
931.4057010147
 21
-284.1499452624
 31
0.0
  0
LWPOLYLINE
  5
10F
330
1F
100
AcDbEntity
  8
0
  6
Continuous
 62
     7
370
    25
100
AcDbPolyline
 90
      171
 70
   128
 43
0.0
 10
566.4675341106
 20
-525.4230424349
 10
566.5921252528
 20
-517.710486284
 10
566.965728503
 20
-510.1523144279
 10
567.5878335641
 20
-502.7588504203
 10
568.4575907153
 20
-495.5401928437
 10
569.573811973
 20
-488.5062015161
 10
570.9349727133
 20
-481.6664840235
 10
572.5392137543
 20
-475.0303825973
 10
574.3843438957
 20
-468.6069613537
 10
576.4678429117
 20
-462.4049939137
 10
578.7868649933
 20
-456.4329514186
 10
581.3382426352
 20
-450.6989909602
 10
584.1184909624
 20
-445.2109444387
 10
587.1238124902
 20
-439.9763078656
 10
590.3501023109
 20
-435.0022311248
 10
593.7929537006
 20
-430.2955082067
 10
597.4476641385
 20
-425.8625679288
 10
601.3092417298
 20
-421.7094651542
 10
605.3724120238
 20
-417.8418725218
 10
609.6316252188
 20
-414.2650726978
 10
614.0810637419
 20
-410.9839511607
 10
618.7146501952
 20
-408.0029895277
 10
623.526055657
 20
-405.3262594339
 10
628.5087083262
 20
-402.9574169706
 10
633.6558024986
 20
-400.8996976916
 10
638.9603078626
 20
-399.1559121941
 10
644.414979102
 20
-397.7284422792
 10
650.0123657921
 20
-396.6192376991
 10
655.7448225758
 20
-395.8298134938
 10
661.6045196067
 20
-395.361247922
 10
667.5834532436
 20
-395.2141809877
 10
673.6734569822
 20
-395.3888135667
 10
679.86621261
 20
-395.884907132
 10
686.1532615678
 20
-396.7017840794
 10
692.5260165028
 20
-397.8383286531
 10
698.9757729985
 20
-399.2929884702
 10
705.4937214632
 20
-401.0637766402
 10
712.0709591633
 20
-403.1482744794
 10
718.6985023833
 20
-405.5436348147
 10
725.3672986965
 20
-408.2465858718
 10
732.068239329
 20
-411.2534357447
 10
738.7921716022
 20
-414.5600774383
 10
745.5299114333
 20
-418.1619944778
 10
752.2722558801
 20
-422.0542670776
 10
759.0099957112
 20
-426.2315788616
 10
765.7339279844
 20
-430.6882241244
 10
772.434868617
 20
-435.4181156246
 10
779.1036649301
 20
-440.4147928994
 10
785.7312081502
 20
-445.6714310887
 10
792.3084458503
 20
-451.180850257
 10
798.826394315
 20
-456.9355252003
 10
805.2761508106
 20
-462.927595725
 10
811.6489057457
 20
-469.1488773835
 10
817.9359547034
 20
-475.5908726533
 10
824.1287103313
 20
-482.2447825439
 10
830.2187140699
 20
-489.1015186146
 10
836.1976477068
 20
-496.1517153887
 10
842.0573447377
 20
-503.3857431456
 10
847.7898015214
 20
-510.7937210734
 10
853.3871882114
 20
-518.3655307654
 10
858.8418594508
 20
-526.0908300403
 10
864.1463648149
 20
-533.9590670685
 10
869.2934589872
 20
-541.9594947848
 10
874.2761116564
 20
-550.0811855671
 10
879.0875171182
 20
-558.3130461628
 10
883.7211035715
 20
-566.6438328406
 10
888.1705420946
 20
-575.0621667478
 10
892.4297552896
 20
-583.5565494531
 10
896.4929255837
 20
-592.1153786512
 10
900.3545031749
 20
-600.7269640112
 10
904.0092136128
 20
-609.3795431432
 10
907.4520650025
 20
-618.0612976649
 10
910.6783548232
 20
-626.7603693439
 10
913.683676351
 20
-635.4648762948
 10
916.4639246783
 20
-644.1629292079
 10
919.0153023202
 20
-652.8426475894
 10
921.3343244017
 20
-661.492175988
 10
923.4178234177
 20
-670.0997001882
 10
925.2629535591
 20
-678.6534633474
 10
926.8671946001
 20
-687.1417820541
 10
928.2283553404
 20
-695.5530622858
 10
929.3445765982
 20
-703.8758152455
 10
930.2143337494
 20
-712.0986730539
 10
930.8364388104
 20
-720.2104042762
 10
931.2100420606
 20
-728.1999292633
 10
931.3346332029
 20
-736.0563352852
 10
931.2100420606
 20
-743.7688914361
 10
930.8364388104
 20
-751.3270632922
 10
930.2143337494
 20
-758.7205272997
 10
929.3445765982
 20
-765.9391848763
 10
928.2283553404
 20
-772.9731762039
 10
926.8671946001
 20
-779.8128936966
 10
925.2629535591
 20
-786.4489951228
 10
923.4178234177
 20
-792.8724163663
 10
921.3343244017
 20
-799.0743838064
 10
919.0153023202
 20
-805.0464263015
 10
916.4639246783
 20
-810.7803867599
 10
913.683676351
 20
-816.2684332814
 10
910.6783548232
 20
-821.5030698545
 10
907.4520650025
 20
-826.4771465953
 10
904.0092136128
 20
-831.1838695133
 10
900.3545031749
 20
-835.6168097913
 10
896.4929255837
 20
-839.7699125659
 10
892.4297552896
 20
-843.6375051983
 10
888.1705420946
 20
-847.2143050222
 10
883.7211035715
 20
-850.4954265594
 10
879.0875171182
 20
-853.4763881923
 10
874.2761116564
 20
-856.1531182862
 10
869.2934589872
 20
-858.5219607495
 10
864.1463648149
 20
-860.5796800284
 10
858.8418594508
 20
-862.323465526
 10
853.3871882114
 20
-863.7509354409
 10
847.7898015214
 20
-864.860140021
 10
842.0573447377
 20
-865.6495642262
 10
836.1976477068
 20
-866.1181297981
 10
830.2187140699
 20
-866.2651967324
 10
824.1287103313
 20
-866.0905641533
 10
817.9359547034
 20
-865.5944705881
 10
811.6489057457
 20
-864.7775936407
 10
805.2761508106
 20
-863.6410490669
 10
798.826394315
 20
-862.1863892499
 10
792.3084458503
 20
-860.4156010799
 10
785.7312081502
 20
-858.3311032406
 10
779.1036649301
 20
-855.9357429054
 10
772.434868617
 20
-853.2327918483
 10
765.7339279844
 20
-850.2259419753
 10
759.0099957112
 20
-846.9193002817
 10
752.2722558801
 20
-843.3173832423
 10
745.5299114333
 20
-839.4251106425
 10
738.7921716022
 20
-835.2477988585
 10
732.068239329
 20
-830.7911535957
 10
725.3672986964
 20
-826.0612620954
 10
718.6985023833
 20
-821.0645848206
 10
712.0709591633
 20
-815.8079466313
 10
705.4937214631
 20
-810.2985274631
 10
698.9757729985
 20
-804.5438525197
 10
692.5260165028
 20
-798.551781995
 10
686.1532615678
 20
-792.3305003365
 10
679.86621261
 20
-785.8885050667
 10
673.6734569822
 20
-779.2345951762
 10
667.5834532436
 20
-772.3778591055
 10
661.6045196067
 20
-765.3276623313
 10
655.7448225758
 20
-758.0936345745
 10
650.0123657921
 20
-750.6856566467
 10
644.414979102
 20
-743.1138469547
 10
638.9603078626
 20
-735.3885476798
 10
633.6558024986
 20
-727.5203106515
 10
628.5087083262
 20
-719.5198829353
 10
623.526055657
 20
-711.398192153
 10
618.7146501952
 20
-703.1663315572
 10
614.0810637419
 20
-694.8355448795
 10
609.6316252188
 20
-686.4172109722
 10
605.3724120238
 20
-677.922828267
 10
601.3092417298
 20
-669.3639990688
 10
597.4476641385
 20
-660.7524137089
 10
593.7929537006
 20
-652.0998345769
 10
590.3501023109
 20
-643.4180800552
 10
587.1238124902
 20
-634.7190083761
 10
584.1184909624
 20
-626.0145014253
 10
581.3382426352
 20
-617.3164485121
 10
578.7868649933
 20
-608.6367301306
 10
576.4678429117
 20
-599.9872017321
 10
574.3843438957
 20
-591.3796775318
 10
572.5392137543
 20
-582.8259143726
 10
570.9349727133
 20
-574.337595666
 10
569.573811973
 20
-565.9263154343
 10
568.4575907153
 20
-557.6035624745
 10
567.5878335641
 20
-549.3807046662
 10
566.965728503
 20
-541.2689734439
 10
566.5921252528
 20
-533.2794484567
 10
566.4675341106
 20
-525.4230424349
  0
SPLINE
  5
110
330
1F
100
AcDbEntity
  8
0
  6
Continuous
 62
     7
370
    25
100
AcDbSpline
210
0.0
220
0.0
230
1.0
 70
     8
 71
     3
 72
    12
 73
     8
 74
     0
 42
0.00000001
 43
0.00000001
 40
0.0
 40
0.0
 40
0.0
 40
0.0
 40
0.2122902274144753
 40
0.4245192158871848
 40
0.6381154010691727
 40
0.8522909481488361
 40
1.0
 40
1.0
 40
1.0
 40
1.0
 10
785.8194975664012
 20
-433.7347185072609
 30
0.0
 10
785.027809295594
 20
-433.6341738301072
 30
0.0
 10
783.4446611307283
 20
-433.4331134797239
 30
0.0
 10
781.3150268760784
 20
-432.4969203122166
 30
0.0
 10
779.7047956234027
 20
-431.2172545116363
 30
0.0
 10
778.7684209407907
 20
-429.8369883371981
 30
0.0
 10
778.7602427963957
 20
-428.9443519777996
 30
0.0
 10
778.7569047544948
 20
-428.5800080110097
 30
0.0
  0
SPLINE
  5
111
330
1F
100
AcDbEntity
  8
0
  6
Continuous
 62
     7
370
    25
100
AcDbSpline
210
0.0
220
0.0
230
1.0
 70
     8
 71
     3
 72
    12
 73
     8
 74
     0
 42
0.00000001
 43
0.00000001
 40
0.0
 40
0.0
 40
0.0
 40
0.0
 40
0.2199424772877391
 40
0.4386642970764495
 40
0.6546026484268616
 40
0.8689688247284029
 40
1.0
 40
1.0
 40
1.0
 40
1.0
 10
792.6686644271497
 20
-429.4746520339272
 30
0.0
 10
792.5914153250566
 20
-430.0096476056319
 30
0.0
 10
792.4373458452212
 20
-431.0766695801723
 30
0.0
 10
791.2206674147884
 20
-432.4236102965331
 30
0.0
 10
789.4455345753837
 20
-433.362428474779
 30
0.0
 10
787.5321957868932
 20
-433.7689873787345
 30
0.0
 10
786.2905374980419
 20
-433.7441434057533
 30
0.0
 10
785.8194975664012
 20
-433.7347185072609
 30
0.0
  0
SPLINE
  5
112
330
1F
100
AcDbEntity
  8
0
  6
Continuous
 62
     7
370
    25
100
AcDbSpline
210
0.0
220
0.0
230
1.0
 70
     8
 71
     3
 72
    13
 73
     9
 74
     0
 42
0.00000001
 43
0.00000001
 40
0.0
 40
0.0
 40
0.0
 40
0.0
 40
0.1958364272961654
 40
0.3916334672057229
 40
0.5883772873775373
 40
0.7859293237220711
 40
0.983228833511096
 40
1.0
 40
1.0
 40
1.0
 40
1.0
 10
737.2582380823691
 20
-403.9111213623418
 30
0.0
 10
736.4645767585947
 20
-404.000176543911
 30
0.0
 10
734.8774137353089
 20
-404.1782689959235
 30
0.0
 10
732.6206676341307
 20
-403.9204093346215
 30
0.0
 10
730.7496924374235
 20
-403.3101611475201
 30
0.0
 10
729.5745364279568
 20
-402.3722127535595
 30
0.0
 10
729.0632214245182
 20
-401.5845399051918
 30
0.0
 10
729.1942616344536
 20
-401.1431116886821
 30
0.0
 10
729.2045278568795
 20
-401.1085284088013
 30
0.0
  0
SPLINE
  5
113
330
1F
100
AcDbEntity
  8
0
  6
Continuous
 62
     7
370
    25
100
AcDbSpline
210
0.0
220
0.0
230
1.0
 70
     8
 71
     3
 72
    12
 73
     8
 74
     0
 42
0.00000001
 43
0.00000001
 40
0.0
 40
0.0
 40
0.0
 40
0.0
 40
0.1431404369867266
 40
0.3805267250129923
 40
0.6170377284315481
 40
0.853610355454373
 40
1.0
 40
1.0
 40
1.0
 40
1.0
 10
743.0770885338364
 20
-399.8035279865676
 30
0.0
 10
743.0871349743708
 20
-400.0505709510605
 30
0.0
 10
743.1138425854065
 20
-400.7073137429296
 30
0.0
 10
742.2754712704876
 20
-401.7940057549776
 30
0.0
 10
740.7550731599122
 20
-402.8663405451604
 30
0.0
 10
738.9586561638088
 20
-403.5762782752591
 30
0.0
 10
737.728480261425
 20
-403.8185221688669
 30
0.0
 10
737.2582380823691
 20
-403.9111213623419
 30
0.0
  0
LWPOLYLINE
  5
114
330
1F
100
AcDbEntity
  8
0
  6
Continuous
 62
     7
370
    25
100
AcDbPolyline
 90
      160
 70
   128
 43
0.0
 10
589.8020578898
 20
-538.89377628
 10
589.926265011
 20
-531.7072596325
 10
590.2986924402
 20
-524.6753703674
 10
590.918758676
 20
-517.809087945
 10
591.7854955586
 20
-511.1191332503
 10
592.8975497813
 20
-504.6159518534
 10
594.2531850034
 20
-498.3096977
 10
595.8502845614
 20
-492.2102172574
 10
597.686354774
 20
-486.3270341403
 10
599.7585288355
 20
-480.6693342407
 10
602.063571292
 20
-475.2459513855
 10
604.5978830935
 20
-470.0653535431
 10
607.3575072128
 20
-465.135629602
 10
610.3381348245
 20
-460.4644767412
 10
613.5351120323
 20
-456.0591884112
 10
616.943447136
 20
-451.9266429468
 10
620.5578184248
 20
-448.0732928272
 10
624.372582487
 20
-444.5051546012
 10
628.3817830213
 20
-441.2277994931
 10
632.579160137
 20
-438.2463447038
 10
636.9581601281
 20
-435.5654454211
 10
641.5119457059
 20
-433.1892875509
 10
646.2334066747
 20
-431.1215811818
 10
651.1151710338
 20
-429.3655547916
 10
656.1496164875
 20
-427.9239502073
 10
661.3288823469
 20
-426.7990183232
 10
666.6448818032
 20
-425.992515587
 10
672.0893145544
 20
-425.5057012568
 10
677.6536797649
 20
-425.3393354356
 10
683.3292893389
 20
-425.4936778837
 10
689.107281486
 20
-425.9684876138
 10
694.9786345572
 20
-426.7630232669
 10
700.9341811317
 20
-427.8760442698
 10
706.9646223305
 20
-429.3058127723
 10
713.0605423354
 20
-431.0500963607
 10
719.2124230912
 20
-433.1061715433
 10
725.4106591661
 20
-435.4708280026
 10
731.6455727504
 20
-438.1403736083
 10
737.9074287666
 20
-441.1106401819
 10
744.1864500699
 20
-444.3769900047
 10
750.4728327139
 20
-447.9343230591
 10
756.7567612583
 20
-451.777084992
 10
763.0284240947
 20
-455.8992757866
 10
769.278028766
 20
-460.2944591314
 10
775.4958172564
 20
-464.9557724695
 10
781.6720812273
 20
-469.8759377132
 10
787.7971771756
 20
-475.0472726086
 10
793.8615414911
 20
-480.4617027302
 10
799.8557053888
 20
-486.1107740881
 10
805.7703096934
 20
-491.985666328
 10
811.5961194523
 20
-498.0772065029
 10
817.3240383552
 20
-504.375883396
 10
822.9451229366
 20
-510.8718623711
 10
828.4505965402
 20
-517.5550007281
 10
833.8318630226
 20
-524.4148635398
 10
839.0805201748
 20
-531.4407399446
 10
844.1883728419
 20
-538.6216598708
 10
849.1474457182
 20
-545.9464111641
 10
853.9499958001
 20
-553.403557095
 10
858.5885244757
 20
-560.9814542152
 10
863.0557892332
 20
-568.6682705381
 10
867.3448149689
 20
-576.4520040124
 10
871.4489048783
 20
-584.3205012622
 10
875.3616509121
 20
-592.2614765632
 10
879.076943782
 20
-600.262531025
 10
882.5889824991
 20
-608.3111719509
 10
885.8922834318
 20
-616.3948323436
 10
888.9816888679
 20
-624.5008905268
 10
891.8523750676
 20
-632.6166898531
 10
894.499859795
 20
-640.7295584651
 10
896.9200093171
 20
-648.8268290817
 10
899.1090448577
 20
-656.8958587758
 10
901.0635484977
 20
-664.9240487155
 10
902.7804685116
 20
-672.8988638353
 10
904.2571241326
 20
-680.8078524079
 10
905.4912097383
 20
-688.6386654866
 10
906.4807984504
 20
-696.3790761863
 10
907.2243451438
 20
-704.0169987746
 10
907.7206888584
 20
-711.5405075419
 10
907.9690546126
 20
-718.9378554226
 10
907.9690546126
 20
-726.1974923359
 10
907.7206888584
 20
-733.3080832206
 10
907.2243451438
 20
-740.2585257331
 10
906.4807984504
 20
-747.0379675825
 10
905.4912097383
 20
-753.6358234751
 10
904.2571241326
 20
-760.0417916421
 10
902.7804685116
 20
-766.2458699248
 10
901.0635484977
 20
-772.2383713912
 10
899.1090448577
 20
-778.0099394618
 10
896.9200093171
 20
-783.5515625181
 10
894.499859795
 20
-788.8545879736
 10
891.8523750676
 20
-793.9107357834
 10
888.9816888679
 20
-798.7121113731
 10
885.8922834318
 20
-803.2512179645
 10
882.5889824991
 20
-807.5209682816
 10
879.076943782
 20
-811.514695616
 10
875.3616509121
 20
-815.2261642367
 10
871.4489048783
 20
-818.649579126
 10
867.3448149689
 20
-821.7795950279
 10
863.0557892332
 20
-824.611324794
 10
858.5885244757
 20
-827.1403470147
 10
853.9499958001
 20
-829.3627129217
 10
849.1474457182
 20
-831.2749525547
 10
844.1883728419
 20
-832.8740801784
 10
839.0805201748
 20
-834.1575989448
 10
833.8318630226
 20
-835.1235047918
 10
828.4505965402
 20
-835.770289572
 10
822.9451229366
 20
-836.0969434078
 10
817.3240383552
 20
-836.102956268
 10
811.5961194523
 20
-835.7883187643
 10
805.7703096934
 20
-835.1535221657
 10
799.8557053888
 20
-834.1995576317
 10
793.8615414911
 20
-832.9279146649
 10
787.7971771756
 20
-831.3405787846
 10
781.6720812273
 20
-829.4400284274
 10
775.4958172564
 20
-827.2292310772
 10
769.278028766
 20
-824.7116386315
 10
763.0284240947
 20
-821.8911820121
 10
756.7567612583
 20
-818.7722650271
 10
750.4728327139
 20
-815.3597574953
 10
744.1864500699
 20
-811.6589876421
 10
737.9074287666
 20
-807.6757337802
 10
731.6455727504
 20
-803.4162152878
 10
725.4106591661
 20
-798.8870828972
 10
719.2124230912
 20
-794.0954083112
 10
713.0605423354
 20
-789.0486731608
 10
706.9646223305
 20
-783.7547573237
 10
700.9341811317
 20
-778.2219266213
 10
694.9786345572
 20
-772.4588199117
 10
689.107281486
 20
-766.4744356021
 10
683.3292893389
 20
-760.2781175982
 10
677.6536797648
 20
-753.8795407149
 10
672.0893145544
 20
-747.2886955705
 10
666.6448818032
 20
-740.5158729874
 10
661.3288823469
 20
-733.5716479239
 10
656.1496164875
 20
-726.4668629633
 10
651.1151710338
 20
-719.2126113838
 10
646.2334066747
 20
-711.8202198381
 10
641.5119457059
 20
-704.3012306682
 10
636.9581601281
 20
-696.667383883
 10
632.579160137
 20
-688.9305988281
 10
628.3817830213
 20
-681.102955575
 10
624.372582487
 20
-673.1966760594
 10
620.5578184248
 20
-665.2241049982
 10
616.943447136
 20
-657.1976906148
 10
613.5351120323
 20
-649.1299652023
 10
610.3381348245
 20
-641.0335255565
 10
607.3575072128
 20
-632.9210133065
 10
604.5978830935
 20
-624.8050951774
 10
602.063571292
 20
-616.6984432119
 10
599.7585288355
 20
-608.6137149846
 10
597.686354774
 20
-600.5635338391
 10
595.8502845614
 20
-592.5604691774
 10
594.2531850034
 20
-584.6170168352
 10
592.8975497813
 20
-576.7455795702
 10
591.7854955586
 20
-568.9584476974
 10
590.918758676
 20
-561.2677798988
 10
590.2986924402
 20
-553.6855842393
 10
589.926265011
 20
-546.2236994172
 10
589.8020578898
 20
-538.89377628
  0
LWPOLYLINE
  5
115
330
1F
100
AcDbEntity
  8
0
  6
Continuous
 62
     7
370
    25
100
AcDbPolyline
 90
       86
 70
   128
 43
0.0
 10
848.8664418702
 20
-275.18926317
 10
849.8002256367
 20
-274.7009615423
 10
854.7828783059
 20
-272.3321190789
 10
859.9299724783
 20
-270.2743998
 10
865.2344778423
 20
-268.5306143025
 10
870.6891490817
 20
-267.1031443875
 10
876.2865357718
 20
-265.9939398074
 10
882.0189925555
 20
-265.2045156022
 10
887.8786895864
 20
-264.7359500303
 10
893.8576232233
 20
-264.5888830961
 10
899.9476269619
 20
-264.7635156751
 10
906.1403825897
 20
-265.2596092404
 10
912.4274315475
 20
-266.0764861877
 10
918.8001864825
 20
-267.2130307615
 10
925.2499429782
 20
-268.6676905786
 10
931.7678914428
 20
-270.4384787485
 10
938.345129143
 20
-272.5229765878
 10
944.972672363
 20
-274.918336923
 10
951.6414686761
 20
-277.6212879801
 10
958.3424093087
 20
-280.6281378531
 10
965.0663415819
 20
-283.9347795467
 10
971.804081413
 20
-287.5366965861
 10
978.5464258598
 20
-291.4289691859
 10
985.2841656909
 20
-295.60628097
 10
992.0080979641
 20
-300.0629262328
 10
998.7090385967
 20
-304.792817733
 10
1005.3778349098
 20
-309.7894950078
 10
1012.0053781299
 20
-315.0461331971
 10
1018.58261583
 20
-320.5555523653
 10
1025.1005642947
 20
-326.3102273087
 10
1031.5503207903
 20
-332.3022978334
 10
1037.9230757254
 20
-338.5235794919
 10
1044.2101246831
 20
-344.9655747617
 10
1050.402880311
 20
-351.6194846522
 10
1056.4928840496
 20
-358.4762207229
 10
1062.4718176865
 20
-365.5264174971
 10
1068.3315147174
 20
-372.760445254
 10
1074.0639715011
 20
-380.1684231818
 10
1079.6613581911
 20
-387.7402328737
 10
1085.1160294305
 20
-395.4655321486
 10
1090.4205347946
 20
-403.3337691769
 10
1095.5676289669
 20
-411.3341968931
 10
1100.5502816361
 20
-419.4558876755
 10
1105.3616870979
 20
-427.6877482712
 10
1109.9952735512
 20
-436.018534949
 10
1114.4447120743
 20
-444.4368688562
 10
1118.7039252693
 20
-452.9312515614
 10
1122.7670955634
 20
-461.4900807596
 10
1126.6286731546
 20
-470.1016661195
 10
1130.2833835925
 20
-478.7542452515
 10
1133.7262349822
 20
-487.4359997732
 10
1136.9525248029
 20
-496.1350714523
 10
1139.9578463307
 20
-504.8395784031
 10
1142.738094658
 20
-513.5376313163
 10
1145.2894722999
 20
-522.2173496978
 10
1147.6084943814
 20
-530.8668780964
 10
1149.6919933974
 20
-539.4744022966
 10
1151.5371235388
 20
-548.0281654558
 10
1153.1413645798
 20
-556.5164841624
 10
1154.5025253201
 20
-564.9277643941
 10
1155.6187465779
 20
-573.2505173539
 10
1156.4885037291
 20
-581.4733751623
 10
1157.1106087901
 20
-589.5851063846
 10
1157.4842120403
 20
-597.5746313717
 10
1157.6088031826
 20
-605.4310373935
 10
1157.4842120403
 20
-613.1435935445
 10
1157.1106087901
 20
-620.7017654005
 10
1156.4885037291
 20
-628.0952294081
 10
1155.6187465779
 20
-635.3138869847
 10
1154.5025253201
 20
-642.3478783123
 10
1153.1413645798
 20
-649.1875958049
 10
1151.5371235388
 20
-655.8236972312
 10
1149.6919933974
 20
-662.2471184747
 10
1147.6084943814
 20
-668.4490859148
 10
1145.2894722998
 20
-674.4211284098
 10
1142.738094658
 20
-680.1550888683
 10
1139.9578463307
 20
-685.6431353897
 10
1136.9525248029
 20
-690.8777719628
 10
1133.7262349822
 20
-695.8518487037
 10
1130.2833835925
 20
-700.5585716217
 10
1126.6286731546
 20
-704.9915118996
 10
1122.7670955634
 20
-709.1446146742
 10
1118.7039252693
 20
-713.0122073066
 10
1114.4447120743
 20
-716.5890071306
 10
1109.9952735512
 20
-719.8701286677
 10
1106.7911156625
 20
-721.9758135917
  0
SPLINE
  5
116
330
1F
100
AcDbEntity
  8
0
  6
Continuous
 62
     7
370
    25
100
AcDbSpline
210
0.0
220
0.0
230
1.0
 70
     8
 71
     3
 72
    13
 73
     9
 74
     0
 42
0.00000001
 43
0.00000001
 40
0.0
 40
0.0
 40
0.0
 40
0.0
 40
0.1919003474576248
 40
0.3837602379956797
 40
0.5766894624034312
 40
0.7713533762002125
 40
0.9672076726645219
 40
0.9999999999999999
 40
0.9999999999999999
 40
0.9999999999999999
 40
0.9999999999999999
 10
939.6218789008547
 20
-286.9743632233631
 30
0.0
 10
938.8344077844528
 20
-287.0455518577432
 30
0.0
 10
937.2596315683136
 20
-287.1879141183342
 30
0.0
 10
934.9986580140211
 20
-286.9154196613173
 30
0.0
 10
933.1063174602956
 20
-286.3217123408699
 30
0.0
 10
931.8734826873058
 20
-285.4327678610165
 30
0.0
 10
931.3194423982706
 20
-284.6609026181103
 30
0.0
 10
931.4444119470386
 20
-284.2172852253869
 30
0.0
 10
931.462334986015
 20
-284.1536619515674
 30
0.0
  0
SPLINE
  5
117
330
1F
100
AcDbEntity
  8
0
  6
Continuous
 62
     7
370
    25
100
AcDbSpline
210
0.0
220
0.0
230
1.0
 70
     8
 71
     3
 72
    12
 73
     8
 74
     0
 42
0.00000001
 43
0.00000001
 40
0.0
 40
0.0
 40
0.0
 40
0.0
 40
0.1270652195945805
 40
0.3700042213536722
 40
0.6113436937311111
 40
0.8514923093555901
 40
1.0
 40
1.0
 40
1.0
 40
1.0
 10
945.3047135120968
 20
-283.2635573126308
 30
0.0
 10
945.322731769225
 20
-283.4663529305701
 30
0.0
 10
945.3751995587595
 20
-284.0568782918681
 30
0.0
 10
944.5901548146625
 20
-285.0446121135287
 30
0.0
 10
943.1057835021439
 20
-286.0387924307981
 30
0.0
 10
941.3217294678998
 20
-286.6842442589983
 30
0.0
 10
940.0918301328863
 20
-286.8941551348511
 30
0.0
 10
939.6218789008547
 20
-286.9743632233631
 30
0.0
  0
SPLINE
  5
118
330
1F
100
AcDbEntity
  8
0
  6
Continuous
 62
     7
370
    25
100
AcDbSpline
210
0.0
220
0.0
230
1.0
 70
     8
 71
     3
 72
    12
 73
     8
 74
     0
 42
0.00000001
 43
0.00000001
 40
0.0
 40
0.0
 40
0.0
 40
0.0
 40
0.2124029729420191
 40
0.4247727841079192
 40
0.6377144661506978
 40
0.8497705344574905
 40
0.9999999999999999
 40
0.9999999999999999
 40
0.9999999999999999
 40
0.9999999999999999
 10
988.1411533831257
 20
-316.7919586522523
 30
0.0
 10
987.3448424592922
 20
-316.6753242058251
 30
0.0
 10
985.7523449370251
 20
-316.4420735227222
 30
0.0
 10
983.5988516911503
 20
-315.4845486653547
 30
0.0
 10
981.9660856807814
 20
-314.2104935213593
 30
0.0
 10
981.0096557077374
 20
-312.8508096523551
 30
0.0
 10
980.9921970747027
 20
-311.9865958975519
 30
0.0
 10
980.9849574781281
 20
-311.62823113173
 30
0.0
  0
SPLINE
  5
119
330
1F
100
AcDbEntity
  8
0
  6
Continuous
 62
     7
370
    25
100
AcDbSpline
210
0.0
220
0.0
230
1.0
 70
     8
 71
     3
 72
    12
 73
     8
 74
     0
 42
0.00000001
 43
0.00000001
 40
0.0
 40
0.0
 40
0.0
 40
0.0
 40
0.2154856054352147
 40
0.4336426632515195
 40
0.6499562482925219
 40
0.8663336488502925
 40
1.0
 40
1.0
 40
1.0
 40
1.0
 10
994.893939930612
 20
-312.9353828348548
 30
0.0
 10
994.8234695003814
 20
-313.4327616892002
 30
0.0
 10
994.6816549927072
 20
-314.4336855820408
 30
0.0
 10
993.4990823118237
 20
-315.6739956403965
 30
0.0
 10
991.7546018051117
 20
-316.523982031779
 30
0.0
 10
989.8571660924725
 20
-316.8668271760477
 30
0.0
 10
988.6153488899594
 20
-316.8126474952857
 30
0.0
 10
988.1411533831257
 20
-316.7919586522523
 30
0.0
  0
LWPOLYLINE
  5
11A
330
1F
100
AcDbEntity
  8
0
  6
Continuous
 62
     7
370
    25
100
AcDbPolyline
 90
       29
 70
   128
 43
0.0
 10
780.7208888101
 20
-428.6441791675
 10
779.7435668838
 20
-427.9366998376
 10
779.0634529663
 20
-427.1214130843
 10
778.7146508092
 20
-426.2392007899
 10
778.7146508092
 20
-425.3343007624
 10
779.0634529663
 20
-424.452088468
 10
779.7435668838
 20
-423.6368017147
 10
780.7208888101
 20
-422.9293223848
 10
781.9464117428
 20
-422.365126446
 10
783.3586828447
 20
-421.9725050385
 10
784.8868849457
 20
-421.7711458393
 10
786.4543876111
 20
-421.7711458393
 10
787.9825897121
 20
-421.9725050385
 10
789.394860814
 20
-422.365126446
 10
790.6203837467
 20
-422.9293223848
 10
791.597705673
 20
-423.6368017147
 10
792.2778195906
 20
-424.452088468
 10
792.6266217477
 20
-425.3343007624
 10
792.6266217477
 20
-426.2392007899
 10
792.2778195906
 20
-427.1214130843
 10
791.597705673
 20
-427.9366998376
 10
790.6203837467
 20
-428.6441791675
 10
789.394860814
 20
-429.2083751063
 10
787.9825897121
 20
-429.6009965137
 10
786.4543876111
 20
-429.802355713
 10
784.8868849457
 20
-429.802355713
 10
783.3586828447
 20
-429.6009965137
 10
781.9464117428
 20
-429.2083751063
 10
780.7208888101
 20
-428.6441791675
  0
LWPOLYLINE
  5
11B
330
1F
100
AcDbEntity
  8
0
  6
Continuous
 62
     7
370
    25
100
AcDbPolyline
 90
       24
 70
   128
 43
0.0
 10
782.1351023725
 20
-427.8277710557
 10
781.3123339283
 20
-427.2014238059
 10
780.8128008314
 20
-426.4701567291
 10
780.6735511666
 20
-425.6882045592
 10
780.9049124444
 20
-424.9135611114
 10
781.4897256572
 20
-424.2036781464
 10
782.3846178843
 20
-423.6112044363
 10
783.5232190633
 20
-423.1800810458
 10
784.8210843533
 20
-422.9422824245
 10
786.1819570231
 20
-422.9154450082
 10
787.5049073725
 20
-423.1015592054
 10
788.691818226
 20
-423.4868217774
 10
789.6546618355
 20
-424.0426595618
 10
790.3220284951
 20
-424.7278486129
 10
790.6444226727
 20
-425.4915715933
 10
790.597933867
 20
-426.2771866633
 10
790.18600994
 20
-427.0264283472
 10
789.4392014051
 20
-427.6837288167
 10
788.4128956347
 20
-428.2003391031
 10
787.1832090328
 20
-428.5379445847
 10
785.8413418294
 20
-428.6715066074
 10
784.4868141761
 20
-428.591119487
 10
783.2200851925
 20
-428.3027451684
 10
782.1351023725
 20
-427.8277710557
  0
SPLINE
  5
11C
330
1F
100
AcDbEntity
  8
0
  6
Continuous
 62
     7
370
    25
100
AcDbSpline
210
0.0
220
0.0
230
1.0
 70
     8
 71
     3
 72
    14
 73
    10
 74
     0
 42
0.00000001
 43
0.00000001
 40
0.0
 40
0.0
 40
0.0
 40
0.0
 40
0.1291990942540598
 40
0.2937687059027786
 40
0.457804076929297
 40
0.6219768235776756
 40
0.786998626855394
 40
0.9533947613129956
 40
1.0
 40
1.0
 40
1.0
 40
1.0
 10
781.3394095449028
 20
-427.1343481153529
 30
0.0
 10
781.565301537118
 20
-426.8965595221236
 30
0.0
 10
782.0789274151476
 20
-426.3558835389465
 30
0.0
 10
783.3958390250408
 20
-425.8246984331615
 30
0.0
 10
785.0076359883225
 20
-425.5791162469282
 30
0.0
 10
786.7153389476204
 20
-425.7158593678479
 30
0.0
 10
788.2695832866581
 20
-426.2328431747629
 30
0.0
 10
789.3345625502731
 20
-426.8284331241634
 30
0.0
 10
789.673411443838
 20
-427.2770685179175
 30
0.0
 10
789.7475524380029
 20
-427.3752310757483
 30
0.0
  0
LWPOLYLINE
  5
11D
330
1F
100
AcDbEntity
  8
0
  6
Continuous
 62
     7
370
    25
100
AcDbPolyline
 90
       29
 70
   128
 43
0.0
 10
741.1229090637
 20
-394.355038471
 10
742.10023099
 20
-395.0625178009
 10
742.7803449075
 20
-395.8778045542
 10
743.1291470646
 20
-396.7600168486
 10
743.1291470646
 20
-397.6649168761
 10
742.7803449075
 20
-398.5471291705
 10
742.10023099
 20
-399.3624159238
 10
741.1229090637
 20
-400.0698952537
 10
739.897386131
 20
-400.6340911925
 10
738.4851150291
 20
-401.0267125999
 10
736.9569129281
 20
-401.2280717992
 10
735.3894102626
 20
-401.2280717992
 10
733.8612081617
 20
-401.0267125999
 10
732.4489370598
 20
-400.6340911925
 10
731.2234141271
 20
-400.0698952537
 10
730.2460922008
 20
-399.3624159238
 10
729.5659782832
 20
-398.5471291705
 10
729.2171761261
 20
-397.6649168761
 10
729.2171761261
 20
-396.7600168486
 10
729.5659782832
 20
-395.8778045542
 10
730.2460922008
 20
-395.0625178009
 10
731.2234141271
 20
-394.355038471
 10
732.4489370598
 20
-393.7908425322
 10
733.8612081617
 20
-393.3982211247
 10
735.3894102626
 20
-393.1968619255
 10
736.9569129281
 20
-393.1968619255
 10
738.4851150291
 20
-393.3982211247
 10
739.897386131
 20
-393.7908425322
 10
741.1229090637
 20
-394.355038471
  0
LWPOLYLINE
  5
11E
330
1F
100
AcDbEntity
  8
0
  6
Continuous
 62
     7
370
    25
100
AcDbPolyline
 90
       24
 70
   128
 43
0.0
 10
739.7086955013
 20
-395.1714465828
 10
740.5314639455
 20
-395.7977938326
 10
741.0309970424
 20
-396.5290609094
 10
741.1702467072
 20
-397.3110130793
 10
740.9388854294
 20
-398.0856565271
 10
740.3540722166
 20
-398.7955394921
 10
739.4591799895
 20
-399.3880132021
 10
738.3205788105
 20
-399.8191365927
 10
737.0227135205
 20
-400.056935214
 10
735.6618408507
 20
-400.0837726303
 10
734.3388905013
 20
-399.8976584331
 10
733.1519796478
 20
-399.5123958611
 10
732.1891360383
 20
-398.9565580767
 10
731.5217693787
 20
-398.2713690256
 10
731.1993752011
 20
-397.5076460452
 10
731.2458640068
 20
-396.7220309752
 10
731.6577879337
 20
-395.9727892913
 10
732.4045964687
 20
-395.3154888217
 10
733.4309022391
 20
-394.7988785354
 10
734.660588841
 20
-394.4612730537
 10
736.0024560444
 20
-394.327711031
 10
737.3569836977
 20
-394.4080981515
 10
738.6237126813
 20
-394.69647247
 10
739.7086955013
 20
-395.1714465828
  0
SPLINE
  5
11F
330
1F
100
AcDbEntity
  8
0
  6
Continuous
 62
     7
370
    25
100
AcDbSpline
210
0.0
220
0.0
230
1.0
 70
     8
 71
     3
 72
    14
 73
    10
 74
     0
 42
0.00000001
 43
0.00000001
 40
0.0
 40
0.0
 40
0.0
 40
0.0
 40
0.0814207548734538
 40
0.2588439491748112
 40
0.4372795486788505
 40
0.6177154409243099
 40
0.8000556618986269
 40
0.9832213963824462
 40
1.0
 40
1.0
 40
1.0
 40
1.0
 10
732.4566268576924
 20
-399.1355258019286
 30
0.0
 10
732.6125820443699
 20
-399.0176986047613
 30
0.0
 10
733.1083776983972
 20
-398.6431152803699
 30
0.0
 10
734.3595003262395
 20
-398.1823009069636
 30
0.0
 10
735.9971486555057
 20
-397.8356557358551
 30
0.0
 10
737.7018146966517
 20
-397.7782417813362
 30
0.0
 10
739.1873269116588
 20
-398.041968224245
 30
0.0
 10
740.1284749903626
 20
-398.3709846312206
 30
0.0
 10
740.3732884441146
 20
-398.6438135768383
 30
0.0
 10
740.3938323011687
 20
-398.6667083923524
 30
0.0
  0
LWPOLYLINE
  5
120
330
1F
100
AcDbEntity
  8
0
  6
Continuous
 62
     7
370
    25
100
AcDbPolyline
 90
       29
 70
   128
 43
0.0
 10
992.8529231661
 20
-306.1829623941
 10
993.8302450924
 20
-306.890441724
 10
994.5103590099
 20
-307.7057284773
 10
994.859161167
 20
-308.5879407718
 10
994.859161167
 20
-309.4928407992
 10
994.5103590099
 20
-310.3750530937
 10
993.8302450924
 20
-311.1903398469
 10
992.8529231661
 20
-311.8978191769
 10
991.6274002334
 20
-312.4620151157
 10
990.2151291315
 20
-312.8546365231
 10
988.6869270305
 20
-313.0559957223
 10
987.1194243651
 20
-313.0559957223
 10
985.5912222641
 20
-312.8546365231
 10
984.1789511622
 20
-312.4620151157
 10
982.9534282295
 20
-311.8978191769
 10
981.9761063032
 20
-311.1903398469
 10
981.2959923856
 20
-310.3750530937
 10
980.9471902285
 20
-309.4928407992
 10
980.9471902285
 20
-308.5879407718
 10
981.2959923856
 20
-307.7057284773
 10
981.9761063032
 20
-306.890441724
 10
982.9534282295
 20
-306.1829623941
 10
984.1789511622
 20
-305.6187664553
 10
985.5912222641
 20
-305.2261450479
 10
987.1194243651
 20
-305.0247858486
 10
988.6869270305
 20
-305.0247858486
 10
990.2151291315
 20
-305.2261450479
 10
991.6274002334
 20
-305.6187664553
 10
992.8529231661
 20
-306.1829623941
  0
LWPOLYLINE
  5
121
330
1F
100
AcDbEntity
  8
0
  6
Continuous
 62
     7
370
    25
100
AcDbPolyline
 90
       24
 70
   128
 43
0.0
 10
991.4387096037
 20
-306.9993705059
 10
992.2614780479
 20
-307.6257177558
 10
992.7610111448
 20
-308.3569848325
 10
992.9002608096
 20
-309.1389370024
 10
992.6688995318
 20
-309.9135804502
 10
992.0840863191
 20
-310.6234634152
 10
991.1891940919
 20
-311.2159371253
 10
990.0505929129
 20
-311.6470605158
 10
988.7527276229
 20
-311.8848591372
 10
987.3918549531
 20
-311.9116965535
 10
986.0689046037
 20
-311.7255823563
 10
984.8819937502
 20
-311.3403197842
 10
983.9191501407
 20
-310.7844819998
 10
983.2517834811
 20
-310.0992929487
 10
982.9293893035
 20
-309.3355699683
 10
982.9758781092
 20
-308.5499548983
 10
983.3878020362
 20
-307.8007132145
 10
984.1346105711
 20
-307.1434127449
 10
985.1609163415
 20
-306.6268024585
 10
986.3906029434
 20
-306.2891969769
 10
987.7324701468
 20
-306.1556349542
 10
989.0869978001
 20
-306.2360220746
 10
990.3537267837
 20
-306.5243963932
 10
991.4387096037
 20
-306.9993705059
  0
SPLINE
  5
122
330
1F
100
AcDbEntity
  8
0
  6
Continuous
 62
     7
370
    25
100
AcDbSpline
210
0.0
220
0.0
230
1.0
 70
     8
 71
     3
 72
    14
 73
    10
 74
     0
 42
0.00000001
 43
0.00000001
 40
0.0
 40
0.0
 40
0.0
 40
0.0
 40
0.1263414984431067
 40
0.2930764886198019
 40
0.4602245117650333
 40
0.6283241465567071
 40
0.7976550441318216
 40
0.9681266169953225
 40
1.0
 40
1.0
 40
1.0
 40
1.0
 10
983.5564748515505
 20
-310.3510452851867
 30
0.0
 10
983.7686606252703
 20
-310.1368750733475
 30
0.0
 10
984.2608715160952
 20
-309.6400608482015
 30
0.0
 10
985.5470865659264
 20
-309.1659130693897
 30
0.0
 10
987.1474354408917
 20
-308.9631249340984
 30
0.0
 10
988.8628281355736
 20
-309.1290426189208
 30
0.0
 10
990.4314311134245
 20
-309.6626116698815
 30
0.0
 10
991.4850216862487
 20
-310.2321564073708
 30
0.0
 10
991.8140507092061
 20
-310.6402950694895
 30
0.0
 10
991.8658793699373
 20
-310.7045850827539
 30
0.0
  0
LWPOLYLINE
  5
123
330
1F
100
AcDbEntity
  8
0
  6
Continuous
 62
     7
370
    25
100
AcDbPolyline
 90
       29
 70
   128
 43
0.0
 10
933.4559535464
 20
-283.3235352631
 10
932.4786316201
 20
-282.6160559332
 10
931.7985177026
 20
-281.8007691799
 10
931.4497155455
 20
-280.9185568854
 10
931.4497155455
 20
-280.013656858
 10
931.7985177026
 20
-279.1314445635
 10
932.4786316201
 20
-278.3161578102
 10
933.4559535464
 20
-277.6086784803
 10
934.6814764791
 20
-277.0444825415
 10
936.093747581
 20
-276.6518611341
 10
937.621949682
 20
-276.4505019349
 10
939.1894523474
 20
-276.4505019349
 10
940.7176544484
 20
-276.6518611341
 10
942.1299255503
 20
-277.0444825415
 10
943.355448483
 20
-277.6086784803
 10
944.3327704093
 20
-278.3161578102
 10
945.0128843269
 20
-279.1314445635
 10
945.361686484
 20
-280.013656858
 10
945.361686484
 20
-280.9185568854
 10
945.0128843269
 20
-281.8007691799
 10
944.3327704093
 20
-282.6160559332
 10
943.355448483
 20
-283.3235352631
 10
942.1299255503
 20
-283.8877312019
 10
940.7176544484
 20
-284.2803526093
 10
939.1894523474
 20
-284.4817118085
 10
937.621949682
 20
-284.4817118085
 10
936.093747581
 20
-284.2803526093
 10
934.6814764791
 20
-283.8877312019
 10
933.4559535464
 20
-283.3235352631
  0
LWPOLYLINE
  5
124
330
1F
100
AcDbEntity
  8
0
  6
Continuous
 62
     7
370
    25
100
AcDbPolyline
 90
       24
 70
   128
 43
0.0
 10
934.8701671088
 20
-282.5071271513
 10
934.0473986646
 20
-281.8807799014
 10
933.5478655677
 20
-281.1495128247
 10
933.4086159029
 20
-280.3675606548
 10
933.6399771806
 20
-279.5929172069
 10
934.2247903934
 20
-278.883034242
 10
935.1196826206
 20
-278.2905605319
 10
936.2582837996
 20
-277.8594371414
 10
937.5561490896
 20
-277.62163852
 10
938.9170217594
 20
-277.5948011037
 10
940.2399721088
 20
-277.7809153009
 10
941.4268829623
 20
-278.166177873
 10
942.3897265718
 20
-278.7220156574
 10
943.0570932314
 20
-279.4072047085
 10
943.379487409
 20
-280.1709276888
 10
943.3329986033
 20
-280.9565427589
 10
942.9210746763
 20
-281.7057844427
 10
942.1742661414
 20
-282.3630849123
 10
941.147960371
 20
-282.8796951987
 10
939.9182737691
 20
-283.2173006803
 10
938.5764065657
 20
-283.350862703
 10
937.2218789124
 20
-283.2704755826
 10
935.9551499288
 20
-282.982101264
 10
934.8701671088
 20
-282.5071271513
  0
SPLINE
  5
125
330
1F
100
AcDbEntity
  8
0
  6
Continuous
 62
     7
370
    25
100
AcDbSpline
210
0.0
220
0.0
230
1.0
 70
     8
 71
     3
 72
    14
 73
    10
 74
     0
 42
0.00000001
 43
0.00000001
 40
0.0
 40
0.0
 40
0.0
 40
0.0
 40
0.0603401235219552
 40
0.2456593642133068
 40
0.4305186695078314
 40
0.6164639540218856
 40
0.8043570228451483
 40
0.9940232259369629
 40
1.0
 40
1.0
 40
1.0
 40
1.0
 10
934.7671702866904
 20
-282.3227804763367
 30
0.0
 10
934.8761807398419
 20
-282.2462580525334
 30
0.0
 10
935.3199888902188
 20
-281.9347165958324
 30
0.0
 10
936.5073223708388
 20
-281.5473843236524
 30
0.0
 10
938.1321250041052
 20
-281.2448547761113
 30
0.0
 10
939.8341509215486
 20
-281.2151276750461
 30
0.0
 10
941.321296848202
 20
-281.4812804137373
 30
0.0
 10
942.2578295689669
 20
-281.7848402322556
 30
0.0
 10
942.5050979480874
 20
-282.0258154848106
 30
0.0
 10
942.5126518468086
 20
-282.0331771323395
 30
0.0
  0
LWPOLYLINE
  5
126
330
1F
100
AcDbEntity
  8
0
  6
Continuous
 62
     1
370
    25
100
AcDbPolyline
 90
       87
 70
   128
 43
0.0
 10
716.1390890987
 20
-349.4387778569
 10
719.1477137811
 20
-347.780537235
 10
724.1174409531
 20
-345.3665091619
 10
729.2518770065
 20
-343.2619512327
 10
734.5440906938
 20
-341.4697045016
 10
739.9869377752
 20
-339.9921884176
 10
745.5730706628
 20
-338.8313975579
 10
751.2949483396
 20
-337.9888989356
 10
757.1448465398
 20
-337.4658298844
 10
763.1148681755
 20
-337.2628965228
 10
769.1969539981
 20
-337.3803728013
 10
775.3828934774
 20
-337.8181001326
 10
781.6643358859
 20
-338.5754876052
 10
788.0328015712
 20
-339.6515127817
 10
794.4796934041
 20
-341.0447230786
 10
800.9963083834
 20
-342.7532377275
 10
807.5738493852
 20
-344.7747503138
 10
814.2034370379
 20
-347.1065318907
 10
820.87612171
 20
-349.7454346625
 10
827.5828955904
 20
-352.6878962344
 10
834.3147048497
 20
-355.9299444215
 10
841.0624618616
 20
-359.4672026113
 10
847.8170574711
 20
-363.2948956712
 10
854.5693732916
 20
-367.4078563955
 10
861.3102940139
 20
-371.8005324804
 10
868.0307197119
 20
-376.4669940197
 10
874.7215781264
 20
-381.4009415095
 10
881.3738369132
 20
-386.5957143525
 10
887.9785158353
 20
-392.0442998495
 10
894.5266988864
 20
-397.7393426659
 10
901.0095463273
 20
-403.6731547617
 10
907.4183066183
 20
-409.8377257692
 10
913.7443282343
 20
-416.2247338073
 10
919.9790713432
 20
-422.8255567151
 10
926.1141193349
 20
-429.6312836919
 10
932.1411901827
 20
-436.632727326
 10
938.0521476241
 20
-443.8204359975
 10
943.8390121445
 20
-451.1847066374
 10
949.4939717485
 20
-458.7155978263
 10
955.0093925063
 20
-466.402943215
 10
960.3778288592
 20
-474.2363652482
 10
965.5920336702
 20
-482.2052891745
 10
970.6449680079
 20
-490.2989573208
 10
975.5298106482
 20
-498.5064436155
 10
980.2399672832
 20
-506.8166683376
 10
984.7690794227
 20
-515.2184130742
 10
989.1110329781
 20
-523.7003358648
 10
993.259966516
 20
-532.250986512
 10
997.2102791712
 20
-540.8588220392
 10
1000.9566382072
 20
-549.5122222729
 10
1004.4939862153
 20
-558.1995055293
 10
1007.8175479418
 20
-566.9089443842
 10
1010.9228367347
 20
-575.6287815044
 10
1013.8056605999
 20
-584.3472455195
 10
1016.4621278606
 20
-593.0525669126
 10
1018.8886524109
 20
-601.7329939088
 10
1021.0819585567
 20
-610.3768083397
 10
1023.0390854376
 20
-618.9723414618
 10
1024.7573910244
 20
-627.5079897092
 10
1026.2345556853
 20
-635.9722303579
 10
1027.4685853173
 20
-644.3536370806
 10
1028.4578140384
 20
-652.6408953722
 10
1029.2009064363
 20
-660.8228178232
 10
1029.6968593713
 20
-668.8883592228
 10
1029.9450033302
 20
-676.8266314691
 10
1029.9450033302
 20
-684.6269182674
 10
1029.6968593713
 20
-692.2786895971
 10
1029.2009064363
 20
-699.7716159265
 10
1028.4578140384
 20
-707.0955821569
 10
1027.4685853173
 20
-714.2407012782
 10
1026.2345556853
 20
-721.1973277151
 10
1024.7573910244
 20
-727.956070349
 10
1023.0390854376
 20
-734.5078051947
 10
1021.0819585567
 20
-740.843687718
 10
1018.8886524109
 20
-746.9551647753
 10
1016.4621278606
 20
-752.8339861596
 10
1013.8056605999
 20
-758.4722157383
 10
1010.9228367347
 20
-763.8622421664
 10
1007.8175479418
 20
-768.9967891614
 10
1004.4939862153
 20
-773.8689253262
 10
1000.9566382072
 20
-778.4720735058
 10
997.2102791712
 20
-782.8000196664
 10
993.259966516
 20
-786.8469212841
 10
989.1110329781
 20
-790.6073152318
 10
984.7690794227
 20
-794.0761251545
 10
980.2399672832
 20
-797.2486683216
 10
976.1176550876
 20
-799.7843620763
  0
LWPOLYLINE
  5
127
330
1F
100
AcDbEntity
  8
0
  6
Continuous
 62
     1
370
    25
100
AcDbPolyline
 90
       87
 70
   128
 43
0.0
 10
747.9586359806
 20
-331.0697444372
 10
750.9675189345
 20
-329.411354719
 10
755.9372461065
 20
-326.9973266459
 10
761.0716821599
 20
-324.8927687167
 10
766.3638958472
 20
-323.1005219856
 10
771.8067429286
 20
-321.6230059016
 10
777.3928758161
 20
-320.4622150419
 10
783.114753493
 20
-319.6197164196
 10
788.9646516932
 20
-319.0966473684
 10
794.9346733289
 20
-318.8937140068
 10
801.0167591515
 20
-319.0111902853
 10
807.2026986308
 20
-319.4489176166
 10
813.4841410392
 20
-320.2063050892
 10
819.8526067246
 20
-321.2823302656
 10
826.2994985575
 20
-322.6755405626
 10
832.8161135368
 20
-324.3840552114
 10
839.3936545385
 20
-326.4055677978
 10
846.0232421913
 20
-328.7373493747
 10
852.6959268634
 20
-331.3762521464
 10
859.4027007438
 20
-334.3187137184
 10
866.1345100031
 20
-337.5607619055
 10
872.882267015
 20
-341.0980200953
 10
879.6368626245
 20
-344.9257131552
 10
886.389178445
 20
-349.0386738795
 10
893.1300991673
 20
-353.4313499644
 10
899.8505248653
 20
-358.0978115037
 10
906.5413832798
 20
-363.0317589935
 10
913.1936420666
 20
-368.2265318365
 10
919.7983209886
 20
-373.6751173335
 10
926.3465040398
 20
-379.3701601499
 10
932.8293514807
 20
-385.3039722457
 10
939.2381117717
 20
-391.4685432532
 10
945.5641333877
 20
-397.8555512913
 10
951.7988764966
 20
-404.4563741991
 10
957.9339244883
 20
-411.2621011759
 10
963.960995336
 20
-418.26354481
 10
969.8719527775
 20
-425.4512534815
 10
975.6588172979
 20
-432.8155241214
 10
981.3137769019
 20
-440.3464153103
 10
986.8291976597
 20
-448.0337606989
 10
992.1976340126
 20
-455.8671827322
 10
997.4118388236
 20
-463.8361066585
 10
1002.4647731613
 20
-471.9297748048
 10
1007.3496158016
 20
-480.1372610994
 10
1012.0597724366
 20
-488.4474858216
 10
1016.5888845761
 20
-496.8492305582
 10
1020.9308381315
 20
-505.3311533488
 10
1025.0797716694
 20
-513.881803996
 10
1029.0300843246
 20
-522.4896395232
 10
1032.7764433606
 20
-531.1430397569
 10
1036.3137913687
 20
-539.8303230133
 10
1039.6373530952
 20
-548.5397618682
 10
1042.7426418881
 20
-557.2595989884
 10
1045.6254657533
 20
-565.9780630035
 10
1048.281933014
 20
-574.6833843965
 10
1050.7084575643
 20
-583.3638113928
 10
1052.9017637101
 20
-592.0076258237
 10
1054.858890591
 20
-600.6031589457
 10
1056.5771961778
 20
-609.1388071932
 10
1058.0543608387
 20
-617.6030478419
 10
1059.2883904706
 20
-625.9844545646
 10
1060.2776191918
 20
-634.2717128562
 10
1061.0207115897
 20
-642.4536353072
 10
1061.5166645247
 20
-650.5191767068
 10
1061.7648084836
 20
-658.4574489531
 10
1061.7648084836
 20
-666.2577357514
 10
1061.5166645247
 20
-673.9095070811
 10
1061.0207115897
 20
-681.4024334104
 10
1060.2776191918
 20
-688.7263996409
 10
1059.2883904706
 20
-695.8715187621
 10
1058.0543608387
 20
-702.8281451991
 10
1056.5771961778
 20
-709.5868878329
 10
1054.858890591
 20
-716.1386226786
 10
1052.9017637101
 20
-722.474505202
 10
1050.7084575643
 20
-728.5859822593
 10
1048.281933014
 20
-734.4648036436
 10
1045.6254657533
 20
-740.1030332223
 10
1042.7426418881
 20
-745.4930596504
 10
1039.6373530952
 20
-750.6276066454
 10
1036.3137913687
 20
-755.4997428102
 10
1032.7764433606
 20
-760.1028909897
 10
1029.0300843246
 20
-764.4308371504
 10
1025.0797716694
 20
-768.4777387681
 10
1020.9308381315
 20
-772.2381327158
 10
1016.5888845761
 20
-775.7069426385
 10
1012.0597724366
 20
-778.8794858056
 10
1007.937506466
 20
-781.4151528752
  0
ENDSEC
  0
SECTION
  2
OBJECTS
  0
DICTIONARY
  5
C
330
0
100
AcDbDictionary
281
     1
  3
ACAD_GROUP
350
D
  3
ACAD_LAYOUT
350
1A
  3
ACAD_MLINESTYLE
350
17
  3
ACAD_PLOTSETTINGS
350
19
  3
ACAD_PLOTSTYLENAME
350
E
  3
ACAD_SCALELIST
350
47
  3
DWGPROPS
350
128
  0
DICTIONARY
  5
D
102
{ACAD_REACTORS
330
C
102
}
330
C
100
AcDbDictionary
281
     1
  0
DICTIONARY
  5
1A
102
{ACAD_REACTORS
330
C
102
}
330
C
100
AcDbDictionary
281
     1
  3
Layout1
350
1E
  3
Layout2
350
26
  3
Model
350
22
  0
DICTIONARY
  5
17
102
{ACAD_REACTORS
330
C
102
}
330
C
100
AcDbDictionary
281
     1
  3
Standard
350
18
  0
DICTIONARY
  5
19
102
{ACAD_REACTORS
330
C
102
}
330
C
100
AcDbDictionary
281
     1
  0
ACDBDICTIONARYWDFLT
  5
E
102
{ACAD_REACTORS
330
C
102
}
330
C
100
AcDbDictionary
281
     1
  3
Normal
350
F
100
AcDbDictionaryWithDefault
340
F
  0
DICTIONARY
  5
47
102
{ACAD_REACTORS
330
C
102
}
330
C
100
AcDbDictionary
281
     1
  3
A0
350
48
  3
A1
350
49
  3
A2
350
4A
  3
A3
350
4B
  3
A4
350
4C
  3
A5
350
4D
  3
A6
350
4E
  3
A7
350
4F
  3
A8
350
50
  3
A9
350
51
  3
B0
350
52
  3
B1
350
53
  3
B2
350
54
  3
B3
350
55
  3
B4
350
56
  3
B5
350
57
  3
B6
350
58
  3
B7
350
59
  3
B8
350
5A
  3
B9
350
5B
  3
C0
350
5C
  3
C1
350
5D
  3
C2
350
5E
  3
C3
350
5F
  3
C4
350
60
  3
C5
350
61
  3
C6
350
62
  3
C7
350
63
  3
C8
350
64
  3
C9
350
65
  3
D0
350
66
  3
D1
350
67
  3
D2
350
68
  0
XRECORD
  5
128
102
{ACAD_REACTORS
330
C
102
}
330
C
100
AcDbXrecord
280
     1
  1
DWGPROPS COOKIE
  2

  3

  4

  6

  7

  8
b.kav
  9

300
=
301
=
302
=
303
=
304
=
305
=
306
=
307
=
308
=
309
=
 40
0.0
 41
2459741.476714687
 42
2459741.476714861
  1

 90
        0
  0
LAYOUT
  5
1E
102
{ACAD_REACTORS
330
1A
102
}
330
1A
100
AcDbPlotSettings
  1

  2
none_device
  4

  6

 40
0.0
 41
0.0
 42
0.0
 43
0.0
 44
0.0
 45
0.0
 46
0.0
 47
0.0
 48
0.0
 49
0.0
140
0.0
141
0.0
142
1.0
143
1.0
 70
   688
 72
     1
 73
     0
 74
     5
  7

 75
    16
147
1.0
148
0.0
149
0.0
100
AcDbLayout
  1
Layout1
 70
     1
 71
     1
 10
0.0
 20
0.0
 11
420.0
 21
297.0
 12
0.0
 22
0.0
 32
0.0
 14
1.0000000000E+20
 24
1.0000000000E+20
 34
1.0000000000E+20
 15
-1.0000000000E+20
 25
-1.0000000000E+20
 35
-1.0000000000E+20
146
0.0
 13
0.0
 23
0.0
 33
0.0
 16
1.0
 26
0.0
 36
0.0
 17
0.0
 27
1.0
 37
0.0
 76
     0
330
1B
  0
LAYOUT
  5
26
102
{ACAD_REACTORS
330
1A
102
}
330
1A
100
AcDbPlotSettings
  1

  2
none_device
  4

  6

 40
0.0
 41
0.0
 42
0.0
 43
0.0
 44
0.0
 45
0.0
 46
0.0
 47
0.0
 48
0.0
 49
0.0
140
0.0
141
0.0
142
1.0
143
1.0
 70
   688
 72
     1
 73
     0
 74
     5
  7

 75
    16
147
1.0
148
0.0
149
0.0
100
AcDbLayout
  1
Layout2
 70
     1
 71
     2
 10
0.0
 20
0.0
 11
0.0
 21
0.0
 12
0.0
 22
0.0
 32
0.0
 14
0.0
 24
0.0
 34
0.0
 15
0.0
 25
0.0
 35
0.0
146
0.0
 13
0.0
 23
0.0
 33
0.0
 16
1.0
 26
0.0
 36
0.0
 17
0.0
 27
1.0
 37
0.0
 76
     0
330
23
  0
LAYOUT
  5
22
102
{ACAD_REACTORS
330
1A
102
}
330
1A
100
AcDbPlotSettings
  1

  2
none_device
  4
Letter_(8.50_x_11.00_Inches)
  6

 40
6.35
 41
6.35
 42
6.35000508
 43
6.35000508
 44
215.9
 45
279.4
 46
0.0
 47
0.0
 48
0.0
 49
0.0
140
0.0
141
0.0
142
1.0
143
1.0
 70
  1712
 72
     1
 73
     0
 74
     0
  7

 75
     0
147
1.0
148
0.0
149
0.0
100
AcDbLayout
  1
Model
 70
     1
 71
     0
 10
0.0
 20
0.0
 11
279.4
 21
215.9
 12
0.0
 22
0.0
 32
0.0
 14
0.0
 24
0.0
 34
0.0
 15
279.4
 25
215.9
 35
0.0
146
0.0
 13
0.0
 23
0.0
 33
0.0
 16
1.0
 26
0.0
 36
0.0
 17
0.0
 27
1.0
 37
0.0
 76
     0
330
1F
331
29
  0
MLINESTYLE
  5
18
102
{ACAD_REACTORS
330
17
102
}
330
17
100
AcDbMlineStyle
  2
Standard
 70
     0
  3

 62
   256
 51
90.0
 52
90.0
 71
     2
 49
0.5
 62
   256
  6
BYLAYER
 49
-0.5
 62
   256
  6
BYLAYER
  0
ACDBPLACEHOLDER
  5
F
102
{ACAD_REACTORS
330
E
102
}
330
E
  0
SCALE
  5
48
102
{ACAD_REACTORS
330
47
102
}
330
47
100
AcDbScale
 70
     0
300
1:1
140
1.0
141
1.0
290
     1
  0
SCALE
  5
49
102
{ACAD_REACTORS
330
47
102
}
330
47
100
AcDbScale
 70
     0
300
1:2
140
1.0
141
2.0
290
     0
  0
SCALE
  5
4A
102
{ACAD_REACTORS
330
47
102
}
330
47
100
AcDbScale
 70
     0
300
1:4
140
1.0
141
4.0
290
     0
  0
SCALE
  5
4B
102
{ACAD_REACTORS
330
47
102
}
330
47
100
AcDbScale
 70
     0
300
1:5
140
1.0
141
5.0
290
     0
  0
SCALE
  5
4C
102
{ACAD_REACTORS
330
47
102
}
330
47
100
AcDbScale
 70
     0
300
1:8
140
1.0
141
8.0
290
     0
  0
SCALE
  5
4D
102
{ACAD_REACTORS
330
47
102
}
330
47
100
AcDbScale
 70
     0
300
1:10
140
1.0
141
10.0
290
     0
  0
SCALE
  5
4E
102
{ACAD_REACTORS
330
47
102
}
330
47
100
AcDbScale
 70
     0
300
1:16
140
1.0
141
16.0
290
     0
  0
SCALE
  5
4F
102
{ACAD_REACTORS
330
47
102
}
330
47
100
AcDbScale
 70
     0
300
1:20
140
1.0
141
20.0
290
     0
  0
SCALE
  5
50
102
{ACAD_REACTORS
330
47
102
}
330
47
100
AcDbScale
 70
     0
300
1:30
140
1.0
141
30.0
290
     0
  0
SCALE
  5
51
102
{ACAD_REACTORS
330
47
102
}
330
47
100
AcDbScale
 70
     0
300
1:40
140
1.0
141
40.0
290
     0
  0
SCALE
  5
52
102
{ACAD_REACTORS
330
47
102
}
330
47
100
AcDbScale
 70
     0
300
1:50
140
1.0
141
50.0
290
     0
  0
SCALE
  5
53
102
{ACAD_REACTORS
330
47
102
}
330
47
100
AcDbScale
 70
     0
300
1:100
140
1.0
141
100.0
290
     0
  0
SCALE
  5
54
102
{ACAD_REACTORS
330
47
102
}
330
47
100
AcDbScale
 70
     0
300
2:1
140
2.0
141
1.0
290
     0
  0
SCALE
  5
55
102
{ACAD_REACTORS
330
47
102
}
330
47
100
AcDbScale
 70
     0
300
4:1
140
4.0
141
1.0
290
     0
  0
SCALE
  5
56
102
{ACAD_REACTORS
330
47
102
}
330
47
100
AcDbScale
 70
     0
300
8:1
140
8.0
141
1.0
290
     0
  0
SCALE
  5
57
102
{ACAD_REACTORS
330
47
102
}
330
47
100
AcDbScale
 70
     0
300
10:1
140
10.0
141
1.0
290
     0
  0
SCALE
  5
58
102
{ACAD_REACTORS
330
47
102
}
330
47
100
AcDbScale
 70
     0
300
100:1
140
100.0
141
1.0
290
     0
  0
SCALE
  5
59
102
{ACAD_REACTORS
330
47
102
}
330
47
100
AcDbScale
 70
     0
300
1/128" = 1'-0"
140
0.0078125
141
12.0
290
     0
  0
SCALE
  5
5A
102
{ACAD_REACTORS
330
47
102
}
330
47
100
AcDbScale
 70
     0
300
1/64" = 1'-0"
140
0.015625
141
12.0
290
     0
  0
SCALE
  5
5B
102
{ACAD_REACTORS
330
47
102
}
330
47
100
AcDbScale
 70
     0
300
1/32" = 1'-0"
140
0.03125
141
12.0
290
     0
  0
SCALE
  5
5C
102
{ACAD_REACTORS
330
47
102
}
330
47
100
AcDbScale
 70
     0
300
1/16" = 1'-0"
140
0.0625
141
12.0
290
     0
  0
SCALE
  5
5D
102
{ACAD_REACTORS
330
47
102
}
330
47
100
AcDbScale
 70
     0
300
3/32" = 1'-0"
140
0.09375
141
12.0
290
     0
  0
SCALE
  5
5E
102
{ACAD_REACTORS
330
47
102
}
330
47
100
AcDbScale
 70
     0
300
1/8" = 1'-0"
140
0.125
141
12.0
290
     0
  0
SCALE
  5
5F
102
{ACAD_REACTORS
330
47
102
}
330
47
100
AcDbScale
 70
     0
300
3/16" = 1'-0"
140
0.1875
141
12.0
290
     0
  0
SCALE
  5
60
102
{ACAD_REACTORS
330
47
102
}
330
47
100
AcDbScale
 70
     0
300
1/4" = 1'-0"
140
0.25
141
12.0
290
     0
  0
SCALE
  5
61
102
{ACAD_REACTORS
330
47
102
}
330
47
100
AcDbScale
 70
     0
300
3/8" = 1'-0"
140
0.375
141
12.0
290
     0
  0
SCALE
  5
62
102
{ACAD_REACTORS
330
47
102
}
330
47
100
AcDbScale
 70
     0
300
1/2" = 1'-0"
140
0.5
141
12.0
290
     0
  0
SCALE
  5
63
102
{ACAD_REACTORS
330
47
102
}
330
47
100
AcDbScale
 70
     0
300
3/4" = 1'-0"
140
0.75
141
12.0
290
     0
  0
SCALE
  5
64
102
{ACAD_REACTORS
330
47
102
}
330
47
100
AcDbScale
 70
     0
300
1" = 1'-0"
140
1.0
141
12.0
290
     0
  0
SCALE
  5
65
102
{ACAD_REACTORS
330
47
102
}
330
47
100
AcDbScale
 70
     0
300
1-1/2" = 1'-0"
140
1.5
141
12.0
290
     0
  0
SCALE
  5
66
102
{ACAD_REACTORS
330
47
102
}
330
47
100
AcDbScale
 70
     0
300
3" = 1'-0"
140
3.0
141
12.0
290
     0
  0
SCALE
  5
67
102
{ACAD_REACTORS
330
47
102
}
330
47
100
AcDbScale
 70
     0
300
6" = 1'-0"
140
6.0
141
12.0
290
     0
  0
SCALE
  5
68
102
{ACAD_REACTORS
330
47
102
}
330
47
100
AcDbScale
 70
     0
300
1'-0" = 1'-0"
140
12.0
141
12.0
290
     0
  0
ENDSEC
  0
EOF
